Your Forgiveness

The Rasmus

 The Rasmus
Tom: D
		
E |-------|       e |-------------------------------------- -------------------------|
B |-9-10 -        B |--------------------------------------- ------------------------|
G |-------|       G |-------------------------------------- -------------------------|
D |-------|       D |------ 7/11 - | Repita tanto um lote, acabamento em A | -11 --- |
A |-------|       A | -9-11 ---------------------------------- ----------------------|
E |-------|       E |-------------------------------------- -------------------------|


E |---------------------------------------|
B |---------------------------------------|
G |---------------------------------------|

D |-44667 ---- 4-4667788 - 911129 ---- 911129 - | x2
A |-44667 ---- 4-4667788 - 911129 ---- 911129 - |
E |-22445 ---- 2-2445566 - 79-107 ---- 79-107 - |

Coro:
Guitarra 1 (distorcida):

E |------------------------------------------------ -|-------------------------------|
B |------------------------------------------------ -|-------------------------------|
G |-77777777444444449999997766666666 -------- 77777777 | 9999997766666666 --------- |
D |-777777774444444499999977666666664444444477777777 | 9999997766666666 ------------|
A |-555555552222222277777755444444444444444455555555 | 7777775544444444 ----------- |
E |--------------------------------- 22222222 --------|----- ------------------------|

Guitarra 2 (distorção, silêncio): (Eu acho que é uma combinação destes dois riffs)
E |-----------|- 7 -------------------|
B |-10-9-7 ----|--- 10-9-7 --------- |
G |-------- 9 --|---------------------|
D |-----------|-----------------------|
A |-----------|-----------------------|
E |-----------|-----------------------|

(pré-verso)

Guitarra 1 desempenha principais riff, Guitarra 2 faz Preencha 1:
Preencha 1:
E |-------------------------|
B |-------------------------|
G |-------------------------|
D |-------------------------|
A | -16 \ 14/16 \ 12/14 \ 11/12 \ 9 - |
E |-------------------------|

(verso)
(pré-refrão)

Chorus (Igual ao primeiro, excepto Guitarra 1 termina com isso):
E |------------------------------------------------ --- |
B |------------------------------------------------ --- |
G |-9999999999999999 ----------------------------------|
D |-999999999999999911111111111111111111111111111111 - |
A | -777777777777777711111111111111111111111111111111 - |
E |----------------- 9-9-9-9-9-9-9-9-9-9-9-9-9-9-9-9 ---|

(solo)

Guitar 1:

E |-----------------------------------------------------|
B |-----------------------------------------------------|
G |---------------------------- 11br -------- 11br -----|

D |-44667 ---- 4-4667788-911129-11br-911129-11br ------ | x2
A |-44667 ---- 4-4667788 - 911129 ------ 911129 -------|
E |-22445 ---- 2-2445566 - 79-107 ------ 79-107 -------|

Guitar 2:
E |------------------------------------------------ ---------------|
B |----------- 19br ------------------------------------ ----------|
G |-17br (t )------- 18br ---------------- 16-18-19-16 ----------- |
D |------------------- 19br-14br -------------------------- ------ |
A |----------------------------------------------- 14 -16-17 ----- |
E |------------------------------------------------ ---------------|
Guitarra 2 contd.
E |-----------------------------------|
B |-----------------------------------|
G |-----------------------------------|
D |---------------------- 14t-16t --- |
A |-9t - 11t - 12t-14t-16t ---------- |
E |-----------------------------------|

Chorus (o mesmo que segundo coro)

Outro (Guitarra 1 toca mesmo que no solo, guitarra 2 desempenha enche (mostrada abaixo), no
ordem listada abaixo):
Preencha 2: Preencha 3:
E |---------------| e |----------------------|
B |-12-10 - 12/10 - B|-19br --------------- |
G |---------------| G |----- 18br ---------- |
D |---------------| D |--------- 19br-16br - |
A |---------------| A |----------------------|
E |---------------| E |----------------------|
Texto Colunas
Alterar tom ½ tom ½ tom
afinação acordes na letra esconder tabs mais »
712 exibições

Comentários (0)

Consegui tocarAinda não conseguiram tocar essa música. Seja o primeiro!
    Não consegui tocar
    1. Tudo Que Você Quiser - Luan Santana Manteve-se 4.902 exibições
    2. Lepo Lepo - Psirico Manteve-se 3.570 exibições
    3. Mozão - Lucas Lucco Manteve-se 3.423 exibições
    4. Logo Eu - Jorge e Mateus Manteve-se 3.029 exibições
    5. Gaveta - Fernando e Sorocaba Manteve-se 2.722 exibições
    6. Só Os Loucos Sabem - Charlie Brown Jr. Manteve-se 2.470 exibições
    7. Pra Você - Onze:20 Manteve-se 2.088 exibições
    8. Tempo Perdido - Legião Urbana Manteve-se 1.989 exibições
    9. Fui Fiel - Gusttavo Lima Manteve-se 1.760 exibições
    10. Na Linha do Tempo - Victor e Leo Manteve-se 1.759 exibições
    1. Jorge e Mateus- Manteve-se 18.170 exibições
    2. Legião Urbana- Manteve-se 16.306 exibições
    3. Luan Santana- Manteve-se 14.644 exibições
    4. Charlie Brown Jr.- Manteve-se 14.217 exibições
    5. Fernandinho- Manteve-se 12.391 exibições
    6. Thalles Roberto- Manteve-se 9.162 exibições
    7. Aline Barros- Manteve-se 9.064 exibições
    8. Católicas- Manteve-se 8.769 exibições
    9. Victor e Leo- Manteve-se 8.687 exibições
    10. Bruno e Marrone- Manteve-se 8.333 exibições
    Exibir acordes »

    Cifras e tabs

    Fórum Cifra Club

    Aprenda

    Cifra Club News

    Mais Serviços Cifra Club ID

    Studio Sol

    ©1996 - 2014 Cifra Club · o primeiro, maior e mais acessado do Brasil · 329 mil músicas · 5.9 milhões pessoas cadastradas

    publicidade
    fechar