Electricityscape

The Strokes

 The Strokes
Nikolai Fraiture


Verse one
“Oh with strangers to impress…”
G---------------------------------------|
D-t22222222-t11111111-------------------|
A---------------------------------------|
E---------------------t2222222222222222-|X4


Verse two
“Take me to the water…”
G-----------------------------------------------------------------|
D-----------------------------------------------------------------|
A-2-2-2-2-2-2-2-2-----------------4-4-4-4-4-4-4-4-----------------|
E-----------------2-2-2-2-2-2-2-2-----------------0-0-0-0-0-0-0-0-|

“…I was wrong.”
G---------------------------------|
D---------------------------------|
A-2-2-2-2-2-2-2-2-----------------|
E-----------------2-2-2-2-2-2-2-2-|

Verse one X2

Verse two

Chorus 
“Change your mind…”
G---------------------------------------------------|
D-t66666666-----------------------------------------|
A-----------t77777777-t44444444-t22222222-----------|
E-----------------------------------------t22222222-|X2

Guitar’s Solo
D-----------------------------------------------------------------|
G-----------------------------------------------------------------|
A-2-2-2-2-2-2-2-2-2-2-2-2-2-2-2-2---------------------------------|
E---------------------------------2-2-2-2-2-2-2-2-2-2-2-2-2-2-2-2-|X2

G-4-4--------------------------------------------|
D-------------------------4-4--------------------|
A------2-2-2-2-2-2-2-2-2-------------------------|
E------------------------------2-2-2-2-2-2-2-2-2-|X2

Verse one

Verse two

Chorus

Verse two

Guitar’s Solo

The End

Comentários 0

Composição: Jack Blades / Juan Magan / Julian Casablancas
Esse não é o compositor? Avise-nos.
Consegui tocarAinda não conseguiram tocar essa música. Seja o primeiro!
    Não consegui tocar
    publicidade
    fechar