New York City Cops

The Strokes

 The Strokes
Album: Is this it?
Tabbed by: Fernando Saavedra
Email: *


Intro (no bass until 0.26) n Verse 1

G:-------------------------------                  -------------------------
D:-------------------------------    x5 then       ---------------------2---
A:0-0-0-0-0-0-0-0----------------                  0-0-0-0-0-0-0-0-2--------
E:----------------3-0-3-0-3------                  ------------------0------
Pre Chorus

G:-------------------------0---------------------------------------------------------------------------------------
D:----2--0--2----------------0---0---------------0-0-0-0-0-0-0---0-0---0-0---------------------0-2-2----0-2-2------
A:0-------------0000000000-----2-----0000000000----------------3-----3------2-2-2-2-2-2-2-2------------------------
E:-----------------------------------------------------------------------------------------------------------------


“And the hours they ran slow...”

G:-0-0-0-0-0-0-0-0-0-0-0-0-0-0-0-0-0-0-0--
D:----------------------------------------
A:----------------------------------------
E:----------------------------------------

Chorus

G:--------------------------------------------------------------------------
D:--------------------------------------------------------------------------
A:3-3-3-3-3-3-3-3-----------------3-3-3-3-3-3-------------------------------   x2
E:----------------1-1-1-1-1-1-1-1-------------0-0-1-1-1-1-3-3-3-3-----------


Guitar solo and verse 2 same as verse 1, until drum break, after it, repeat 3 more times the verse and make the change
Pre Chorus “Ninas’s in the bedroom...”

G:2--9--7--9------------0------------------------------------7--5--4--2-----------------
D:------------------------0---0-------------0-0-0-0-0-0-0-0--------------2-2-2-2-2-2-2--
A:-----------0000000000-----2----0000000000---------------------------------------------
E:--------------------------------------------------------------------------------------

Pre Chorus “Oh, trapped in an appartment...”

G:2--9--7--9-------------0----------------------------------------------------------------------------------
D:-------------------------0---0-------------0-0-0-0-0-0-0-0---0-0----0-0---------------------0-2-2--0-2-2--
A:-----------0000000000------2----0000000000-----------------3------3-------2-2-2-2-2-2-2-2-----------------
E:----------------------------------------------------------------------------------------------------------

“Darlin I’m somewhere inbetween...”

G:0-0-0-0-0-0-0-0-0-0-0-0-0-0-0-0--
D:---------------------------------
A:---------------------------------
E:---------------------------------

Chorus repeat x2 at the end you must let ring 

A:---3(let ring)

Comentários 0

Consegui tocarAinda não conseguiram tocar essa música. Seja o primeiro!
    Não consegui tocar
    publicidade
    fechar