The End Has No End

The Strokes

 The Strokes
Tom: F
		
INTRO/FECHAMENTO:                                                    
_______________________________________________________________________
GUITARRA 1:                                      |                                               |
e|-----------------------------------------------|                                               |
B|-----------------------------------------------|                                               |
G|03-03-03-03-------------02-02-02-02------------|                                               |
D|03-03-03-03-03-03-03-03-02-02-02-02-02-02-02-02|                                               |
A|01-01-01-01-03-03-03-03-00-00-00-00-02-02-02-02|                                               |
E|------------01-01-01-01-------------00-00-00-00|                                               |
 |                                               |                                               |
1º VERSO:                                        |                                               |
_|_______________________________________________|_______________________________________________|
GUITARRA 1: C/ TOQUE ABAFADO.____________________|_______________________________________________|
e|xx-xx-xx-xx-xx-xx-xx-xx-xx-xx-xx-xx-xx-xx-xx-xx|xx-xx-xx-xx-xx-xx-xx-xx-xx-xx-xx-xx-xx-xx-xx-xx|
B|05-05-05-05-05-05-05-05-05-05-05-05-05-05-05-05|05-05-05-05-05-05-05-05-05-05-05-05-05-05-05-05|
G|06-06-06-06-06-06-06-06-06-06-06-06-06-06-06-06|06-06-06-06-06-06-06-06-06-06-06-06-06-06-06-06
D|07-07-07-07-07-07-07-07-07-07-07-07-07-07-07-07|07-07-07-07-07-07-07-07-07-07-07-07-07-07-07-07|
A|07-07-07-07-07-07-07-07-07-07-07-07-07-07-07-07|07-07-07-07-07-07-07-07-07-07-07-07-07-07-07-07|
E|xx-xx-xx-xx-xx-xx-xx-xx-xx-xx-xx-xx-xx-xx-xx-xx|xx-xx-xx-xx-xx-xx-xx-xx|xx-xx-xx-xx-xx-xx-xx-xx|
 |                                               |                                               |
e|xx-xx-xx-xx-xx-xx-xx-xx-xx-xx-xx-xx-xx-xx-xx-xx|xx-xx-xx-xx-xx-xx-xx-xx-xx-xx-xx-xx-xx-xx-xx-xx|
B|03-03-03-03-03-03-03-03-03-03-03-03-03-03-03-03|03-03-03-03-03-03-03-03-03-03-03-03-03-03-03-03|
G|04-04-04-04-04-04-04-04-04-04-04-04-04-04-04-04|04-04-04-04-04-04-04-04-04-04-04-04-04-04-04-04|
D|05-05-05-05-05-05-05-05-05-05-05-05-05-05-05-05|05-05-05-05-05-05-05-05-05-05-05-05-05-05-05-05|
A|05-05-05-05-05-05-05-05-05-05-05-05-05-05-05-05|05-05-05-05-05-05-05-05-05-05-05-05-05-05-05-05|
E|xx-xx-xx-xx-xx-xx-xx-xx-xx-xx-xx-xx-xx-xx-xx-xx|xx-xx-xx-xx-xx-xx-xx-xx|xx-xx-xx-xx-xx-xx-xx-xx|
 |                                               |                                               |
e|xx-xx-xx-xx-xx-xx-xx-xx-xx-xx-xx-xx-xx-xx-xx-xx|xx-xx-xx-xx-xx-xx-xx-xx-xx-xx-xx-xx-xx-xx-xx-xx|
B|05-05-05-05-05-05-05-05-05-05-05-05-05-05-05-05|05-05-05-05-05-05-05-05-05-05-05-05-05-05-05-05|
G|06-06-06-06-06-06-06-06-06-06-06-06-06-06-06-06|06-06-06-06-06-06-06-06-06-06-06-06-06-06-06-06|
D|07-07-07-07-07-07-07-07-07-07-07-07-07-07-07-07|07-07-07-07-07-07-07-07-07-07-07-07-07-07-07-07|
A|07-07-07-07-07-07-07-07-07-07-07-07-07-07-07-07|07-07-07-07-07-07-07-07-07-07-07-07-07-07-07-07|
E|xx-xx-xx-xx-xx-xx-xx-xx-xx-xx-xx-xx-xx-xx-xx-xx|xx-xx-xx-xx-xx-xx-xx-xx|xx-xx-xx-xx-xx-xx-xx-xx|
 |                                               |                                               |
e|xx-xx-xx-xx-xx-xx-xx-xx-xx-xx-xx-xx-xx-xx-xx-xx|                                               |
B|03-03-03-03-03-03-03-03-03-03-03-03-03-03-03-03|                                               |
G|04-04-04-04-04-04-04-04-04-04-04-04-04-04-04-04|                                               |
D|05-05-05-05-05-05-05-05-05-05-05-05-05-05-05-05|                                               |
A|05-05-05-05-05-05-05-05-05-05-05-05-05-05-05-05|                                               |
E|xx-xx-xx-xx-xx-xx-xx-xx-xx-xx-xx-xx-xx-xx-xx-xx|                                               |
_|_______________________________________________|_______________________________________________|
GUITARRA 2_______________________________________|_______________________________________________|
e|-----------------------------------------------|-----------------------------------------------|
B|-----------------------------------------------|-----------------------------------------------|
G|11----------10----------11-------10----10------|11----------10----------11-------10----10------|
D|------11----------11----------11----------11---|------11----------11----------11----------11---|
A|-----------------------------------------------|-----------------------------------------------|
E|-----------------------------------------------|-----------------------------------------------|
 |                                               |                                               |
e|-----------------------------------------------|-----------------------------------------------|
B|-----------------------------------------------|-----------------------------------------------|
G|10----------08----------10-------08----08------|10----------08----------10-------08----08------|
D|------10----------10----------10----------10---|------10----------10----------10----------10---|
A|-----------------------------------------------|-----------------------------------------------|
E|-----------------------------------------------|-----------------------------------------------|
 |                                               |                                               |
e|-----------------------------------------------|-----------------------------------------------|
B|-----------------------------------------------|-----------------------------------------------|
G|11----------10----------11-------10----10------|11----------10----------11-------10----10------|
D|------11----------11----------11----------11---|------11----------11----------11----------11---|
A|-----------------------------------------------|-----------------------------------------------|
E|-----------------------------------------------|-----------------------------------------------|
 |                                               |                                               |
e|-----------------------------------------------|                                               |
B|-----------------------------------------------|                                               |
G|10----------08----------10-------08----08------|                                               |
D|------10----------10----------10----------10---|                                               |
A|-----------------------------------------------|                                               |
E|-----------------------------------------------|                                               |
_|_______________________________________________|_______________________________________________|
 |                                               |                                               |
PRÉ-REFRÃO:(TOCAR A 1ª LINHA 4X, conforme a tab. Use a 2ªlinha pra encerrar o pré-refrão, apenas)|
_|_______________________________________________|_______________________________________________|
GUITARRA 1_______________________________________|_______________________________________________|
e|-----------------------------------------------|-----------------------------------------------|
B|------------14----------------------14---------|------------13----------------------13---------| 
G|---11-13----------11-13----11-13----------11-13|---11-13----------11-13----11-13----------13-11|4X
D|11-------11----11------------------------------|-----------------------------------------------|  /
A|------------------------13-------13----13------|11-------11----11-------11-------11----11------| /
E|-----------------------------------------------|-----------------------------------------------|/
 |                                               |                                               |
e|-----------------------------------------|    |                                               |
B|------------13----------------------13---|    |                                               |
G|---11-13----------11-13----11-13---------|1X  |                                               |
D|-----------------------------------------|  /  |                                               |
A|11-------11----11-------11-------11----11| /   |                                               |
E|-----------------------------------------|/    |                                               |
_|_______________________________________________|_______________________________________________|
GUITARRA 2_______________________________________|_______________________________________________|
e|-----------------------------------------------|-----------------------------------------------|
B|-----------------------------------------------|-----------------------------------------------| 
G|11----------10----------11-------10----10------|10----------08----------10-------08----08------|4X
D|------11----------11----------11----------11---|------10----------10----------10----------10---|  / 
A|-----------------------------------------------|-----------------------------------------------| /
E|-----------------------------------------------|-----------------------------------------------|/
 |                                               |                                               |
e|-----------------------------------------|    |                                               |
B|-----------------------------------------|    |                                               |
G|10----------08----------10-------08----08|1X  |                                               |
D|------10----------10----------10---------|  /  |                                               |
A|-----------------------------------------| /   |                                               |
E|-----------------------------------------|/    |                                               |
_|_______________________________________________|_______________________________________________|
REFRÃO 1:                                        |                                               |
_________________________________________________|_______________________________________________|
GUITARRA 1:                                      |                                               |
e|-----------------------------------------------|-----------------------------------------------|
B|-----------------------------------------------|-----------------------------------------------|
G|13-13-13-13-11-11-15-15-13-13-13-13-13-13-11-11|13-13-13-13-11-11-15-15-13-13-13-13-13-13-11-11|
D|-----------------------------------------------|-----------------------------------------------|
A|-----------------------------------------------|-----------------------------------------------|
E|-----------------------------------------------|-----------------------------------------------|

e|-----------------------------------------------|-----------------------------------------------|
B|-----------------------------------------------|-----------------------------------------------|
G|13-13-13-13-11-11-15-15-13-13-13-13-13-13-11-11|13-13-13-13-11-11-15-15-15-15-15-15-15-15-13-13|
D|-----------------------------------------------|-----------------------------------------------|
A|-----------------------------------------------|-----------------------------------------------|
E|-----------------------------------------------|-----------------------------------------------|
 |                                               |                                               |
e|-----------------------|                       |                                               |
B|-----------------------|                       |                                               |
G|13-13-13-13-13-13-13-13|                       |                                               |
D|-----------------------|                       |                                               |
A|-----------------------|                       |                                               |
E|-----------------------|                       |                                               |
_|_______________________________________________|_______________________________________________|
GUITARRA 2: (TOQUE A 1ª LINHA 2X E USE A 2ª LINHA|P/ FINALIZAR O REFRÃO:                         |
e|01-01-01-01-01-01-01-01-05-05-05-05-05-05-05-05|04-04-04-04-04-04-04-04-06-06-06-06-06-06-06-06|
B|01-01-01-01-01-01-01-01-06-06-06-06-06-06-06-06|04-04-04-04-04-04-04-04-07-07-07-07-07-07-07-07| 
G|02-02-02-02-02-02-02-02-07-07-07-07-07-07-07-07|05-05-05-05-05-05-05-05-08-08-08-08-08-08-08-08|2X
D|03-03-03-03-03-03-03-03-07-07-07-07-07-07-07-07|06-06-06-06-06-06-06-06-08-08-08-08-08-08-08-08|  /
A|03-03-03-03-03-03-03-03-05-05-05-05-05-05-05-05|06-06-06-06-06-06-06-06-06-06-06-06-06-06-06-06| /
E|01-01-01-01-01-01-01-01-05-05-05-05-05-05-05-05|04-04-04-04-04-04-04-04-06-06-06-06-06-06-06-06|/
_|_______________________________________________|_______________________________________________|
E|06-06-06-06-06-06-06-06|                       |_______________________________________________|
B|07-07-07-07-07-07-07-07|                       |_______________________________________________|
G|08-08-08-08-08-08-08-08|                       |_______________________________________________|
D|08-08-08-08-08-08-08-08|                       |_______________________________________________|
A|06-06-06-06-06-06-06-06|                       |_______________________________________________|
E|06-06-06-06-06-06-06-06|                       |_______________________________________________|
_|_______________________________________________|_______________________________________________|
SOLO:
_|_______________________________________________|_______________________________________________|
GUITARRA 1: C/ TOQUE ABAFADO.____________________________________________________________________|
e|xx-xx-xx-xx-xx-xx-xx-xx-xx-xx-xx-xx-xx-xx-xx-xx|xx-xx-xx-xx-xx-xx-xx-xx-xx-xx-xx-xx-xx-xx-xx-xx|
B|05-05-05-05-05-05-05-05-05-05-05-05-05-05-05-05|05-05-05-05-05-05-05-05-05-05-05-05-05-05-05-05|
G|06-06-06-06-06-06-06-06-06-06-06-06-06-06-06-06|06-06-06-06-06-06-06-06-06-06-06-06-06-06-06-06|
D|07-07-07-07-07-07-07-07-07-07-07-07-07-07-07-07|07-07-07-07-07-07-07-07-07-07-07-07-07-07-07-07|
A|07-07-07-07-07-07-07-07-07-07-07-07-07-07-07-07|07-07-07-07-07-07-07-07-07-07-07-07-07-07-07-07|
E|xx-xx-xx-xx-xx-xx-xx-xx-xx-xx-xx-xx-xx-xx-xx-xx|xx-xx-xx-xx-xx-xx-xx-xx|xx-xx-xx-xx-xx-xx-xx-xx|
 |                                               |     NESTE ÚLTIMO TEMPO, TOCAR SEM ABAFAR!     |
e|xx-xx-xx-xx-xx-xx-xx-xx-xx-xx-xx-xx-xx-xx-xx-xx|03-03-03-03-03-03-03-03-03-03-03-03-03-03-03-03|
B|03-03-03-03-03-03-03-03-03-03-03-03-03-03-03-03|03-03-03-03-03-03-03-03-03-03-03-03-03-03-03-03|
G|04-04-04-04-04-04-04-04-04-04-04-04-04-04-04-04|04-04-04-04-04-04-04-04-04-04-04-04-04-04-04-04|
D|05-05-05-05-05-05-05-05-05-05-05-05-05-05-05-05|05-05-05-05-05-05-05-05-05-05-05-05-05-05-05-05|
A|05-05-05-05-05-05-05-05-05-05-05-05-05-05-05-05|05-05-05-05-05-05-05-05-05-05-05-05-05-05-05-05|
E|xx-xx-xx-xx-xx-xx-xx-xx-xx-xx-xx-xx-xx-xx-xx-xx|03-03-03-03-03-03-03-03|03-03-03-03-03-03-03-03|
__________________________________________________________________________________________________
GUITARRA 2:                                      |                                               |
e|03b04r03----02----07----06----------04----06---|02/--05--02/--05--02-03-02/--05--02/--05--02-02|
B|------------------------------07---------------|03/--06--03/--06--03-04-03/--06--03/--06--03-03|
G|-----------------------------------------------|-----------------------------------------------|
D|-----------------------------------------------|-----------------------------------------------|
A|-----------------------------------------------|-----------------------------------------------|
E|-----------------------------------------------|-----------------------------------------------|
 |                                               |                                               |
E|-----------------------------------------------|-----------------------------------------------|
B|09b09b09b09b09b09b09b09b10b10b10b10b10b10b10b10|12b12b12b12b12b12b12b12b12b12b12b12b12b12b12b12|
G|-----------------------------------------------|-----------------------------------------------|
D|-----------------------------------------------|-----------------------------------------------|
A|-----------------------------------------------|-----------------------------------------------|
E|-----------------------------------------------|-----------------------------------------------|
2º VERSO:                                        |                                               |
_|_______________________________________________|_______________________________________________|
GUITARRA 1:                                      |                                               |
e|05-05-05-05-05-05-05-05-05-05-05-05-05-05-05-05|05-05-05-05-05-05-05-05-05-05-05-05-05-05-05-05|
B|05-05-05-05-05-05-05-05-05-05-05-05-05-05-05-05|05-05-05-05-05-05-05-05-05-05-05-05-05-05-05-05|
G|06-06-06-06-06-06-06-06-06-06-06-06-06-06-06-06|06-06-06-06-06-06-06-06-06-06-06-06-06-06-06-06|
D|07-07-07-07-07-07-07-07-07-07-07-07-07-07-07-07|07-07-07-07-07-07-07-07-07-07-07-07-07-07-07-07|
A|07-07-07-07-07-07-07-07-07-07-07-07-07-07-07-07|07-07-07-07-07-07-07-07-07-07-07-07-07-07-07-07|
E|05-05-05-05-05-05-05-05-05-05-05-05-05-05-05-05|05-05-05-05-05-05-05-05-05-05-05-05-05-05-05-05|
 |                                               |                                               |
e|03-03-03-03-03-03-03-03-03-03-03-03-03-03-03-03|03-03-03-03-03-03-03-03-03-03-03-03-03-03-03-03|
B|03-03-03-03-03-03-03-03-03-03-03-03-03-03-03-03|03-03-03-03-03-03-03-03-03-03-03-03-03-03-03-03|
G|04-04-04-04-04-04-04-04-04-04-04-04-04-04-04-04|04-04-04-04-04-04-04-04-04-04-04-04-04-04-04-04|
D|05-05-05-05-05-05-05-05-05-05-05-05-05-05-05-05|05-05-05-05-05-05-05-05-05-05-05-05-05-05-05-05|
A|05-05-05-05-05-05-05-05-05-05-05-05-05-05-05-05|05-05-05-05-05-05-05-05-05-05-05-05-05-05-05-05|
E|03-03-03-03-03-03-03-03-03-03-03-03-03-03-03-03|03-03-03-03-03-03-03-03-03-03-03-03-03-03-03-03|
_|_______________________________________________|_______________________________________________|
GUITARRA 2_______________________________________|_______________________________________________|
e|-----------------------------------------------|-----------------------------------------------|
B|-----------------------------------------------|-----------------------------------------------|
G|11----------10----------11-------10----10------|11----------10----------11-------10----10------|
D|------11----------11----------11----------11---|------11----------11----------11----------11---|
A|-----------------------------------------------|-----------------------------------------------|
E|-----------------------------------------------|-----------------------------------------------|
 |                                               |                                               |
e|-----------------------------------------------|-----------------------------------------------|
B|-----------------------------------------------|-----------------------------------------------|
G|10----------08----------10-------08----08------|10----------08----------10-------08----08------|
D|------10----------10----------10----------10---|------10----------10----------10----------10---|
A|-----------------------------------------------|-----------------------------------------------|
E|-----------------------------------------------|-----------------------------------------------|
_|_______________________________________________|_______________________________________________|


REFRÃO 2:                                        |                                               |
_|_______________________________________________|_______________________________________________|
GUITARRA 1: (TOCAR 1ª LINHA 3X)                  |                                               |
e|-----------------------------------------------|-----------------------------------------------|
B|-----------------------------------------------|-----------------------------------------------| 
G|13-13-13-13-11-11-15-15-13-13-13-13-13-13-11-11|13-13-13-13-11-11-15-15-13-13-13-13-13-13-11-11|3X
D|-----------------------------------------------|-----------------------------------------------|  /
A|-----------------------------------------------|-----------------------------------------------| /
E|-----------------------------------------------|-----------------------------------------------|/



e|-----------------------------------------------|-----------------------------------------------|
B|-----------------------------------------------|-----------------------------------------------|
G|13-13-13-13-11-11-15-15-13-13-13-13-13-13-11-11|13-13-13-13-11-11-15-15-15-15-15-15-15-15-15-15|
D|-----------------------------------------------|-----------------------------------------------|
A|-----------------------------------------------|-----------------------------------------------|
E|-----------------------------------------------|-----------------------------------------------|

 |                                               |>>>>>>>>>>>>>>>>>>>FECHAMENTO
Texto Colunas
Alterar tom ½ tom ½ tom
afinação acordes na letra esconder tabs mais »

Comentários 5

Composição: Jack Blades / Juan Magan / Julian Casablancas
Esse não é o compositor? Avise-nos.
Contribuição: nilribeiro
  1. Domingo de Manhã - Marcos e Belutti Manteve-se 81.006 exibições
  2. Até Você Voltar - Henrique e Juliano Manteve-se 68.135 exibições
  3. Diz Pra Mim - Malta Manteve-se 62.718 exibições
  4. Cuida Bem Dela - Henrique e Juliano Manteve-se 53.751 exibições
  5. All Of Me - John Legend Manteve-se 43.982 exibições
  6. Nocaute - Jorge e Mateus Manteve-se 36.690 exibições
  7. Raridade - Anderson Freire Manteve-se 36.547 exibições
  8. Destino - Lucas Lucco Manteve-se 35.606 exibições
  9. Recaídas - Henrique e Juliano Manteve-se 31.614 exibições
  10. Só Os Loucos Sabem - Charlie Brown Jr. Manteve-se 29.933 exibições
  1. Henrique e Juliano- Manteve-se 233.447 exibições
  2. Jorge e Mateus- Manteve-se 227.732 exibições
  3. Legião Urbana- Manteve-se 173.845 exibições
  4. Charlie Brown Jr.- Manteve-se 155.256 exibições
  5. Bruno e Marrone- Manteve-se 107.589 exibições
  6. Fernandinho- Manteve-se 103.576 exibições
  7. Marcos e Belutti- Manteve-se 95.742 exibições
  8. Malta- Manteve-se 93.755 exibições
  9. Luan Santana- Manteve-se 87.747 exibições
  10. Lucas Lucco- Manteve-se 79.527 exibições
Exibir acordes »

Cifras e tabs

Fórum Cifra Club

Aprenda

Cifra Club News

Mais Serviços Cifra Club ID

Studio Sol

©1996 - 2014 Cifra Club · o primeiro, maior e mais acessado do Brasil · 342 mil músicas · 6.4 milhões pessoas cadastradas

publicidade
fechar