On my own

The Used

 The Used
Tom: A
		
INTRODUÇÃO-(riff 1)


(riff 1)

E|------0--------------0---------0--------------0---------0--------0--------0--------0----| 
B|--------2---------2---------------2--------2------------2--------2--------2--------2----| 
G|----2----------2------------2-----------2------------2--------2--------2--------2-------| 
D|-0----------0------------0-----------0--------------------------------------------------| 
A|---------------------------------------------------------------------0-------00---------| 
E|--------------------------------------------------2-------22--------2-------------------| 



E|------0--------------0---------0--------------0---------0--------0---------0--------0---| 
B|--------2---------2---------------2--------2------------2--------2---------2--------2---| 
G|----2----------2------------2-----------2------------2--------2---------2--------2------| 
D|-0----------0------------0-----------0--------------------------------------------------| 
A|----------------------------------------------------------------------------------------| 
E|--------------------------------------------------2-------22--------2-0----- 00---------|



(riff 2)

E|------0--------------0---------0-----------0--------------0-----------0------0---------0---0-| 
B|--------2---------2---------------2--------2-----------------2------2----------2-----2-----2-| 
G|----2----------2------------2-----------2--------------2----------2--------2-------2-------2-| 
D|-0----------0------------0--------------------------0----------0---------0-------0---------0-| 
A|---------------------------------------------------------------------------------------------| 
E|-------------------------------------2--------2-0--------------------------------------------|




(riff 1)

[Intro:] D7M(9) F#m7 A D7M(9) F#m7 F#m7(11)

D7M(9) 			     F#m7      A  D7M(9)
See all those people on the ground wasting time
 		       F#m7   F#m7(11)
I try to hold it all inside but just for tonight
     E
The top of the world, sitting here wishing
     F#m7					E
The things I've become that something is missing
		 	 F#m7 D9/A
Maybe I...but what do I know

And now it seems that I have found, nothing at all
I want to hear your voice out loud, slow it down, slow it down
Without it all, I'm choking on nothing
It's clear in my head and I'm screaming for something
Knowing nothing is better than knowing at all

F#m7 D9/A
On my own

Comentários 0

Composição: Stefanie Kloß / The Used
Esse não é o compositor? Avise-nos.
Contribuição: sidferreira
Exibir acordes »
publicidade
fechar