Tema The Walking Dead

The Walking Dead

 The Walking Dead Compositor: Bear McCreary
Tom: G
		
Afinação| Drop D


E|---------------------------------
B|------0h1-0-------0h1-0-------0h1
G|---------------------------------
D|----2-------2---2-------2---2----  x4
A|--0-----------0-----------0------
D|---------------------------------




E|---------------------------------
B|---------------------------------
G|------0h1-0-------0h1-0-------0h1
D|---------------------------------  x2
A|----3-------3---3-------3---3----
D|--3-----------3-----------3------




E|---------------------------------
B|---------------------------------
G|---------------------------------
D|------2h3-2-------2h3-2-------2h3  x2
A|----0-------0---0-------0---2----
D|--0-----------0-----------0------




E|---------------------------------
B|------0h1-0-------0h1-0-------0h1
G|---------------------------------
D|----2-------2---2-------2---2----  x4
A|--0-----------0-----------0------
D|---------------------------------



E|-----
B|-----
G|-----
D|--2--
A|--0--
D|-----
17.792 exibições

Comentários 3

  • danilo.mendoncabarbosa danilo.mendoncabarbosa: Postado em 05/02/2014 18:16

    muito louco consegui no violão!!! :D :D :D

  • Murilo Murilo: Postado em 30/12/2013 20:20

    Tirei no violão ficou muito bom :D

  • arlen arlen: Postado em 18/11/2013 20:04

    merda nao to conseguindo

Exibir acordes »
publicidade
fechar