I Just Don't Know What To Do With Myself

The White Stripes

 The White Stripes
Tom: C
		
Obs.: Cá está a tab corrigida deste cover do White Stripes, de autoria de Burt Bacharach.
      Mais uma vez a versão mais comum que tem por aí despreza detalhes fundamentais,
      logo vou tentar escrever os acordes corretos. 

1. Intro


    G  G   C  C  G                G
E|--3--3---------3----------------3--3--------3-------------------------|
B|--3--3---5--5--3----------------3--3--5--5--3-------------------------|
G|--0--0---5--5--0----------------0--0--5--5--0-------------------------|
D|--0--0---5--5--0---0-0----------0--0--5--5--0---0-0-------------------|
A|--2--2---3--3--2--------3-2~-0--2--2--3--3--2--------3-2~-0-----------|
E|--3--3---------3----------------3--3--------3-------------------------|



G** - Strum Down
E|--3--3----------------------------------------------------------------|
B|--3--3----------------------------------------------------------------|
G|--0--0----------------------------------------------------------------|
D|--0--0----------------------------------------------------------------|
A|--2--2----------------------------------------------------------------|
E|--3--3----------------------------------------------------------------|


2. Verse

              G
I just don't know what to 

C         G     G**
do with myself

              G
I just don't know what to 

C         G     G**
do with myself


Am
Planning everything for two

F
Doing everything with you

    Em               A
And now that were through


             G            C   G
I just don't know what to do
              G
I just don't know what to 

C         G     G**
do with myself

              G
I just don't know what to 

C         G     G**
do with myself 

Am
Movies only make me sad

F
Parties make me feel as bad

      Em            A
Cause I'm not with you

              G           C    G
I just don't know what to do

                   G
Like a summer rose

                   F
Needs the sun and rain
             
             Bb    Bb
I need your sweet love

G               C
To beat love away


3. Bridge

              G           F         G     Riff*
I just don't know what to do with myself
            G           F          G     Riff*
Just don't know what to do with myself
            G           F          G     Riff*
just don't know what to do with myself
 
Riff*

E|--10-10-8-7~-|
B|-------------|
G|-------------|
A|-------------|
D|-------------|
E|-------------|


         G           F          G    
I don't know what to do with myself

Comentários 0

Composição: Burt Bacharach / Giancarlo Bigazzi / Glenn Danzig / Hal David / Lawson / Stefan Gordy
Esse não é o compositor? Avise-nos.
Contribuição: Ueré
Exibir acordes »
publicidade
fechar