Baba o'riley

The Who

 The Who
Tom: F
		
Riff principal:

   F5    C5   Bb5
|------------------|
|*----------------*|
|------------------|
|--10^-------------|
|*-8^----10---8~~-*|
|--------8----6~~--|


(Ele toca pandero na introdução e o verso 1! imitando o som da guitarra, mas
também fica legal feito na guitarra)

Verso 1:
Out here in the fields
I fight for my meals
I get my back into my living
I don't need to fight
To prove I'm right
I don't need to be forgiven
Yeah yeah....


Riff principal=5x: + essa ponte:

   C5
|-------------|
|-------------|
|--5---5---5--|
|--5---5---5--|
|--3---3---3--|
|-------------|


(Aqui não tem guitarra!ele só canta!)
Don't cry
Don't raise your eye
It's only teenage wasteland

Riff principal=8x:
Sally ,take my hand
Travel south crossland
Put out the fire
Don't look past my shoulder
The exodus is here
The happy ones are near
Let's get together
Before we get much older

Solo:

F         C    Bb                  Eb   F                 C
|-13~--13------|---------------13-15-13-|-15^-15-13----------------|
|--------13-13/|15-15-15----------------|-----------15-13-15/13/15-|
|--------------|------------------------|--------------------------|
|--------------|------------------------|--------------------------|
|--------------|------------------------|--------------------------|
|--------------|------------------------|--------------------------|



  Bb  
|-----------------------|
|-13--------------------|
|----------15^15^15^15^-|
|-----------------------|
|-----------------------|
|-----------------------|


Riff principal=4x:
Teenage wasteland
It's just a teenage wasteland
Teenage wasteland
Oh, oh
Teenage wasteland
            C5      C5 Bb5 Bb5 F5 F5 C5 C5 Bb5 Bb5 F5 F5
They're all wasted!


  C                               Bb
|-12-13-15--12-|13-15--12-13-15-|-12-13-15--12-|13-15--12-13-15-|
|--------------|----------------|--------------|----------------|
|--------------|----------------|--------------|----------------|
|--------------|----------------|--------------|----------------|
|--------------|----------------|--------------|----------------|
|--------------|----------------|--------------|----------------|



  F                               Eb
|-12-13-15--12-|13-15--12-13-15-|-11-13-15--11-|13-15--11-13-15-|
|--------------|----------------|--------------|----------------|
|--------------|----------------|--------------|----------------|
|--------------|----------------|--------------|----------------|
|--------------|----------------|--------------|----------------|
|--------------|----------------|--------------|----------------|



  C    
|-12-13-12-13-12-13-12-13-|12-13-12-13-12-13-12----|
|-------------------------|---------------------13-|
|-------------------------|------------------------|
|-------------------------|------------------------|
|-------------------------|------------------------|
|-------------------------|------------------------|



  Bb   
|-12-13-12-13-12-13-12-13-|12-13-12-13-15-12-13-12-|
|-------------------------|------------------------|
|-------------------------|------------------------|
|-------------------------|------------------------|
|-------------------------|------------------------|
|-------------------------|------------------------|



  F    
|-15-13-15-13-15-13-15-13-|15-13-15-13-15-13-15-13-|
|-------------------------|------------------------|
|-------------------------|------------------------|
|-------------------------|------------------------|
|-------------------------|------------------------|
|-------------------------|------------------------|



  Eb    
|-11-13-11-13-11-13-11-13-|11-13-11-13-11-13-11-13-|
|-------------------------|------------------------|
|-------------------------|------------------------|
|-------------------------|------------------------|
|-------------------------|------------------------|
|-------------------------|------------------------|


F5 F5 F5.....F5

Comentários 1

Composição: David Musumeci / Pete Townshend
Esse não é o compositor? Avise-nos.
Contribuição: Taino from Hell
Exibir acordes »
publicidade
fechar