Happy Jack

The Who

 The Who
Tabbed by Jeff C.  *

NOTE:  The intro I cannot play, nor can i figure out the notes, 
but I know the first two notes are 0-3 on the D string (if anyone 
figures out, e-mail me and thanks in advance)

Verse:
G-------------------
D-----0----0-----0-2
A---0-----0----0----
E-------------------

Pre- Chorus
G------------------------------
D------------------------------
A---045-045-045-045-045-045-045
E------------------------------

Chorus w/ lyrics
G--0--------0-----
D-----------------
A-----0---------0-
E-----------------

Chorus con't (part without lyrics)

G-----------------------
D-----------------------
A---0--45454545----0---5 (gradual fall 1st time)
E-----------------------

Chorus con't 2

G---------
D--------0
A-----00--
E--3333---
and then
G-----------------------
D-----------------------
A--00---00---00---00---0
E-----------------------

Here's how it goes:
Intro
Verse
Intro
Verse
Pre-Chorus
Chorus w/ lyrics
Verse
Chorus con't
Verse
Chorus con't
Chorus con't 2
Chorus w/ lyrics
Verse
Intro

Comentários 0

Composição: David Musumeci / Pete Townshend
Esse não é o compositor? Avise-nos.
Consegui tocarAinda não conseguiram tocar essa música. Seja o primeiro!
    Não consegui tocar
    publicidade
    fechar