My Generation Solo

The Who

 The Who
I am pretty sure that these are the right tabs, it's just the speed
that is hard, not the tabs. So have fun!

Solo
|---3-5---5-5-3---3-----------|
|-5-------------5----5-3---3--|
|------------------------5---5|
|-----------------------------|


|------------------|
|-5-5-5-5--3-3-3-3-|
|------------------|
|------------------|

|--------------------------|
|-5-5-3----------------3-4-|
|-------5-5-3------3-5-----|
|--------------6-3---------|

|------------------|
|-5-5-5-5--3-3-3-3-|
|------------------|
|------------------|

|---3-5--5-3-3------------------|
|-5-------------5-3---3---------|
|-------------------5---5-3-----|
|-----------------------------6-|

|------------------|
|-5-5-5-5--3-3-3-3-|
|------------------|
|------------------|

And that is the solo!
2.145 exibições

Comentários 0

Consegui tocarAinda não conseguiram tocar essa música. Seja o primeiro!
    Não consegui tocar
    publicidade
    fechar