Invisible Man

Theory Of A Deadman

 Theory Of A Deadman
Tom: D#
		
album: Spider-Man soundtrack track 12
tabbed by: Will *
tuning: half a step down with drop D


Eb|---------------------------------------------|--------|
Bb|---------------------------------------------|--------|
Gb|---------------------------------------------|--------|
Db|---------------------------------------------|--------|
Ab|--0-0-0-0-0--3-3-3-3-3--0-0-0-0-0--3-3-3-3-3-|-5-5--5-|
Db|--0-0-0-0-0--3-3-3-3-3--0-0-0-0-0--3-3-3-3-3-|-5-5--5-|

           
           v v up strum                  with quick phaser

----------------------------------------|---------|
-----------3-3-------------3-3----------|---------|
-----------2-2-------------2-2----------|---------|
-----------0-0-------------0-0----------|---------|
--3h4-3-0---------3h4-3-0-------5-5--5--|--x--10--|
--3h4-3-0---------3h4-3-0-------5-5--5--|--x--10--|


verse

---------------------------------------|---------|
---------------------------------------|---------|
---------------------------------------|---------|
---------------------------------------|---------|
-------------5-------------------------|--x--10--|
--/5--3--0--------0-0-0--0-0-0--0-0-0--|--x--10--|


chorus

-------------------------------------------------------|
-------------------------------------------------------|
-------------------------------------------------------|
-------------------------------------------------------|
--0-0-0-0-0--3-3-3-3-3--0-0-0-0-0--3-3-3-3-3--5-5--5---|
--0-0-0-0-0--3-3-3-3-3--0-0-0-0-0--3-3-3-3-3--5-5--5---|

                                               

-----------------------------------------------------------|
-----------------------------------------------------------|
-----------------------------------------------------------|
-----------------------------------------------------------|
--0-0-0-0-0--3-3-3-3-3--0-0-0-0-0--3-3-3-3-3--5-5-5-5-5-5--|
--0-0-0-0-0--3-3-3-3-3--0-0-0-0-0--3-3-3-3-3--5-5-5-5-5-5--|

                                              goin once.....
bridge
  play once                        play twice

---------------------|------------------------------------|
---------------------|------------------------------------|
---------------------|------------------------------------|
---------------------|------------------------------------|
--0-0--0-0--0-0--0-0-|-8-8-8-8-8-8-8--10-10-10-10-10-10---|
--0-0--0-0--0-0--0-0-|-8-8-8-8-8-8-8--10-10-10-10-10-10---|



---------------------|
---------------------| Just fool around with these notes
---------------------| and add a few pinch harmonics till
---------------------| I perfect this part. Just email me
--3---5~~~~--3~~~~---| and I'll send it or wait for another
---------------------| version of the song.


Ill add all the guitar two parts and the little solo on a different version of the
tab but i figured if most of yas are like me if ya here a kick ass song like this
you just wanna learn as much right away. 
Peace till then..Will.
78 exibições

Comentários 0

Composição: Chad Kroeger / J. Pittman / Paul Quattrone / Reinaldo Maia / Sj. Brooks / Veit Renn
Esse não é o compositor? Avise-nos.
Consegui tocarAinda não conseguiram tocar essa música. Seja o primeiro!
    Não consegui tocar
    Exibir acordes »
    publicidade
    fechar