Lei do Desapego

Thiago Brava

 Thiago Brava
Tom: C#
		
C#   G#   Abm     F#    G#
   Oo  oooo   ooo o o o...



E|----------------------------------------------------------------|
B|----------------------------------------------------------------|
G|-----6-----6-6-----6-6---6-6-6-6-5--5-5--5-5--5-5-5-5-5---------|
D|------6-6-----6-6-------6---------------------------------------|
A|----------------------------------------------------------------|
E|----------------------------------------------------------------|



E|------------------------------13---11--09----------|
B|---7/6---7/6---------------------------------------|
G|-------8-----8-6-5-5-5-5----13---11----10----------|
D|---------------------------------------------------|
A|---------------------------------------------------|
E|---------------------------------------------------|


C#                                  G#
Deixa te dizer, amor que eu nunca te fiz feliz
            A#m
Que eu não era nada do que sempre quis
               F#
E que não senti nada
              G#
Que eu não era nada que você pensava
   C#                         G#                        A#m
E eu já decidi que hoje eu vou sair sem preocupar eu vou me divertir
                                F#                         G#
Já que agora eu não preciso me explicar e com certeza você vai ouvir falar

C#
Que eu já tô que tô
G#
Eu tô pegando mesmo
                        A#m
Tô praticando a lei do desapego
                           F#
Que diz que não preciso me apaixonar
         G#
Pra ser feliz eu não preciso me entregar

C#
E eu já tô que tô
G#
Eu tô pegando mesmo
                    A#m
E sei que você vai ficar sabendo
                           F#
Que tô feliz sem você do meu lado
             G#
Hoje eu tô livre, leve e desapegado

C#                                  G#
Deixa te dizer, amor que eu nunca te fiz feliz
            A#m
Que eu não era nada do que sempre quis
               F#
E que não senti nada
              G#
Que eu não era nada que você pensava
   C#                         G#                        A#m
E eu já decidi que hoje eu vou sair sem preocupar eu vou me divertir
                                F#                         G#
Já que agora eu não preciso me explicar e com certeza você vai ouvir falar

C#
Que eu já tô que tô
G#
Eu tô pegando mesmo
                        A#m
Tô praticando a lei do desapego
                           F#
Que diz que não preciso me apaixonar
         G#
Pra ser feliz eu não preciso me entregar

C#
E eu já tô que tô
G#
Eu tô pegando mesmo
                    A#m
E sei que você vai ficar sabendo
                           F#
Que tô feliz sem você do meu lado
             G#
Hoje eu tô livre, leve e desapegado

C#
Que eu já tô que tô
G#
Eu tô pegando mesmo
                        A#m
Tô praticando a lei do desapego
                           F#
Que diz que não preciso me apaixonar
         G#
Pra ser feliz eu não preciso me entregar

C#
E eu já tô que tô
G#
Eu tô pegando mesmo
                    A#m
E sei que você vai ficar sabendo
                           F#
Que tô feliz sem você do meu lado
             G#
Hoje eu tô livre, leve e desapegado
15.961 exibições

Comentários 1

  • frankian frankian: Postado em 09/01/2014 14:24

    finalmente a cifra certa :P

Composição: Sabe quem é o compositor? Envie pra gente. Contribuição: juliaalves15 Correções: palcomp3her e mais 1 »
Exibir acordes »
publicidade
fechar