Pain

Three Days Grace

 Three Days Grace Compositor: Pablo Malakian
Tom: G
		
Drop D

  Intro


E|----------0---------0~--------0---------0~----|
B|------------0-------0~----------0-------0~----|
G|-------12--------12--------12--------12-------|
D|----14--------13--------12--------11----------|  (2x)
A|----------------------------------------------|
D|----------------------------------------------|



E|-------------0~----|
B|--------0----------|
G|-----12---12-------|
D|--10---------------|
A|-------------------|
D|-------------------|


  Chorus


E|-------------------------------------------------|
B|-------------------------------------------------|
G|----------4/5\4\2---------------4/5\4\2----------|
D|----2--2--x/x\x\x-5~-0~---2--2--x/x\x\x-7~-0~----|
A|----2--2--2/3\2\0-5~-0~---2--2--2/3\2\0-7~-0~----|
D|----2--2----------5~-0~---2--2----------7~-0~----|



E|-------------------------------------------------------|
B|-------------------------------------------------------|
G|----------4/5\4\2-------------------------11/12\11~----|
D|----2--2--x/x\x\x-5~-0~---12-12-12-12-0-0-x-/x-\x-~----|
A|----2--2--2/3\2\0-5~-0~---10-10-10-10-0-0-9-/10\9-~----|
D|----2--2----------5~-0~---10-10-10-10-0-0--------------|


  Verse (4x)


E|----------0---------0~--------0---------0~----|
B|------------0-------0~----------0-------0~----|
G|-------12--------12--------12--------12-------|
D|----14--------13--------12--------11----------|
A|----------------------------------------------|
D|----------------------------------------------|


  (Chorus) 2x

  (Verse) 3x

  Chorus


E|-------------------------------------------------|
B|-------------------------------------------------|
G|----------4/5\4\2---------------4/5\4\2----------|
D|----2--2--x/x\x\x-5~-0~---2--2--x/x\x\x-7~-0~----|
A|----2--2--2/3\2\0-5~-0~---2--2--2/3\2\0-7~-0~----|
D|----2--2----------5~-0~---2--2----------7~-0~----|



E|-------------------------------------------------------|
B|-------------------------------------------------------|
G|----------4/5\4\2-------------------------11/12\11~----|
D|----2--2--x/x\x\x-5~-0~---12-12-12-12-0-0-x-/x-\x-~----|
A|----2--2--2/3\2\0-5~-0~---10-10-10-10-0-0-9-/10\9-~----|
D|----2--2----------5~-0~---10-10-10-10-0-0--------------|



E|-------------------------------------------------|
B|-------------------------------------------------|
G|----------4/5\4\2---------------4/5\4\2----------|
D|----2--2--x/x\x\x-5~-0~---2--2--x/x\x\x-7~-0~----|
A|----2--2--2/3\2\0-5~-0~---2--2--2/3\2\0-7~-0~----|
D|----2--2----------5~-0~---2--2----------7~-0~----|



E|----------------------------------------------------------------------------|
B|----------------------------------------------------------------------------|
G|----------4/5\4\2-------------------------11/12\11~-------------------------|
D|----2--2--x/x\x\x-5~-0~---12-12-12-12-0-0-x-/x-\x-~--12-12-12-12-0-0-0-0----|
A|----2--2--2/3\2\0-5~-0~---10-10-10-10-0-0-9-/10\9-~--12-12-12-12-0-0-0-0----|
D|----2--2----------5~-0~---10-10-10-10-0-0------------12-12-12-12-0-0-0-0----|


  Bridge


E|-------------------------------------------------------|
B|-------------------------------------------------------|
G|----11h12-11h12-11h12-11h12-11~------------------------|
D|----x--x--x--x--x--x--x--x--x-~--10~--10~--12~--12~----|  (4x)
A|----9--9--9--9--9--9--9--9--9-~--10~--10~--12~--12~----|
D|---------------------------------10~--10~--12~--12~----|


  Chorus


E|-------------------------------------------------|
B|-------------------------------------------------|
G|----------4/5\4\2---------------4/5\4\2----------|
D|----2--2--x/x\x\x-5~-0~---2--2--x/x\x\x-7~-0~----|
A|----2--2--2/3\2\0-5~-0~---2--2--2/3\2\0-7~-0~----|
D|----2--2----------5~-0~---2--2----------7~-0~----|



E|-------------------------------------------------------|
B|-------------------------------------------------------|
G|----------4/5\4\2-------------------------11/12\11~----|
D|----2--2--x/x\x\x-5~-0~---12-12-12-12-0-0-x-/x-\x-~----|
A|----2--2--2/3\2\0-5~-0~---10-10-10-10-0-0-9-/10\9-~----|
D|----2--2----------5~-0~---10-10-10-10-0-0--------------|



E|-------------------------------------------------|
B|-------------------------------------------------|
G|----------4/5\4\2---------------4/5\4\2----------|
D|----2--2--x/x\x\x-5~-0~---2--2--x/x\x\x-7~-0~----|
A|----2--2--2/3\2\0-5~-0~---2--2--2/3\2\0-7~-0~----|
D|----2--2----------5~-0~---2--2----------7~-0~----|



E|-------------------------|  |-------------------------------|
B|-------------------------|  |-------------------------------|
G|----------4/5\4\2--------|  |------------------11/12\11~----|
D|----2--2--x/x\x\x-5~-0~--|  |--12-12-12-12-0-0-x-/x-\x-~----|  (3x)
A|----2--2--2/3\2\0-5~-0~--|  |--10-10-10-10-0-0-9-/10\9-~----|
D|----2--2----------5~-0~--|  |--10-10-10-10-0-0--------------|


  Outro


E|---------------------------------|
B|---------------------------------|
G|-----11h12-11h12-11h12-11h12~----|
D|-----x--x--x--x--x--x--x--x-~----|
A|-----9--9--9--9--9--9--9--9-~----|
D|---------------------------------|

Comentários 0

Composição: For Today / Roger P. Shah / Ryland Bouchard / Syd Barrett
Esse não é o compositor? Avise-nos.
Contribuição: tele Correções: Matheus e mais 1 »
Exibir acordes »
publicidade
fechar