Cabrobró

Tianastácia

 Tianastácia
Tom: C
		
(intro)

É o tianastácia ae!

( G5 A#5 A5 ) (8X)
( A5 A#5 G5 A#5 A5 ) (3x)

(parte 1)

A#5 A5     F5    G5    (Pausa)
         Ouvi falar,
Loucura vem de berço
Camarão bom é nascido em Cabrobró

(lick 1)

E|-----------------------|
B|-----------------------|
G|----3-5-5b7r5p3p0------|
D|--5---------------0----|
A|-----------------------|
E|-----------------------|


     G5
A bebida é coisa que vira cirrose
E o cérebro derrete quando alguém cheira loló

Meu pai falava pra eu andar
Sempre na linha
Só transar com camisinha
Pra as ''mulhé'' não engravidar
          G5
Lança perfume sustentava meus neurônios
Descobri que Steinhaeger com cerveja
Faz pirar

(refrão)
          C5
Só não vacilo bro

                   G * A# * A * (2x)
A natureza é implacável
           D5
Se o cara nasce mané
  C5
Cresce mané
 G5
Morre mané, mané (2x)

(repete tudo 2x)

(refrão final)
          C5
Só não vacilo bro

A natureza é implacável

           D5
Se o cara nasce mané
  C5
Cresce mané
 G5
Morre mané, mané (4x)

(solo)

E|----------------------------------------------------|
B|----------------------------------------------------|
G|----------------------------------------------------|
D|-15h17-15h17-15h17-15h17-15h17-15h17-15h17-17-------|
A|----------------------------------------------------|
E|----------------------------------------------------|



E|----------------------------------------------------|
B|----------------------------------------------------|
G|-15-------15-------15----15-17b18-17b18-17b18-------
D|----17-17----17-17----17----------------------------|
A|----------------------------------------------------|
E|----------------------------------------------------|



E|-------------------------|
B|-------------------------|
G|-------------------------|
D|-17b19r17p15--17/19~-----|
A|-------------------------|
E|-------------------------|



E|-----------------------------------------|
B|----------------------------22-----------|
G|----17-19-19b21-19b21-19b21----21r19~----|
D|-19--------------------------------------|
A|-----------------------------------------|
E|-----------------------------------------|



E|-------3-6-3-----------------|
B|-----3-------6-3-------------|
G|---3-------------5b7r5p3-----|
D|-------------------------5---|
A|-6---------------------------|
E|-----------------------------|


(* algumas variações pode ser feitas quando a música repete)

(variação 1: No lugar do lick 1, tocar)

E|---------------------------|
B|---------------------------|
G|---------------------------|
D|---------------------------|
A|---------------5(...)------|
E|---0-0-1-1-2-2-3(...)------|


(variação 2: Tocar na segunda estrofe, fazendo o papel do baixo)
(Se estiver tocando com banda, o baixo fará essa parte)


E|----------------------------------------------------|
B|----------------------------------------------------|
G|----------------------------------------------------|
D|---5-3--------5-3-----------------------------------|
A|-------5----------5------------------5(...)---------|
E|-3-------3--3-------3-0-0-1-2/5-0-0--3(...)---------|

    pm      pm pm

Comentários 3

  • zara_caroline zara_caroline: Postado em 23/01/2011 02:30

    tianastaaaaaacia *--------*

  • zara_caroline zara_caroline: Postado em 23/01/2011 02:30

    *-----------*

  • zara_caroline zara_caroline: Postado em 23/01/2011 02:27

    *-------------------------------* tianastaaaaaaaacia...

Exibir acordes »
publicidade
fechar