Boiada Cuiabana

Tião Carreiro e Pardinho

 Tião Carreiro e Pardinho
Tom: D
		
(Viola Caipira)


E|----------------------------------------------------------------
B|----------------------------------------------------------------
G|--7---7--7--7--5--3-3/7----7--5--5----3----3----1--1----7---(A)
E|---7---7--7--7--5--4-4/7----7--5--5----4----4----2--2--7~~~~---
B|----------------------------------------------------------------

   Vou contar a minha vida   do tempo que eu era mo..ço


E|--------------------------------------------------------------
B|--------------------------------------------------------------
G|--3---3--3---3--1/5-5-5--3---3---3--3-1----1--0------(A)-----
E|---4---4--4---4--2/5-5-5--4---4---4--4-2----2--0---2~~~~------
B|---------------------------------------------------4----------

   De uma vi..agem que eu fiz   lá pro sertão de Mato Grosso


E|----------------------------------------------------
B|----------------------------------------------------
G|-5/7-7-7-7-7-5/7-7-7-3--3-5----1--1----0---0-------
E|--5/7-7-7-7-7-5/7-7-7-4--4-5----2--2----0---0-------
B|----------------------------------------------------

  Fui buscar uma boiada   isto fo..i no mês de agosto

Meu patrão foi embarcado pra linha sorocabana
Capataz da comitiva era o Juca flor da fama
Fui tratado pra trazer uma boiada cuiabana

No baio foi João negrão no tordilho Severino
Zé Garcia no alazão e no pampa foi Catarino
A madrinha e o cargueiro quem puxava era um menino

Eu sai de lambari na minha besta ruana
Só depois de trinta dias que cheguei em Aquidauana
Lá fiquei enamorado de uma malvada baiana

Ao chegar em campo grande num cassino eu fui chegando
Uma linda paraguaia na mesa estava jogando
Botei a mão na algibeira dinheiro estava sobrando

Ela mandou me dizer pra que eu fosse chegando
Eu mandei dizer pra ela vai bebendo eu vou pagando
Eu joguei nove partidas meu dinheiro foi rodando

Declamado:

A lua foi se escondendo vinha rompendo a manhã
Aquela morena faceira trigueira cor de romã
Soluçando me dizia,
Mutchacho leva-me contigo que te darei toda a minha alma,
Todo o meu coração toda minha vida
Os boiadeiros no rancho estavam prontos pra partida
Numa roseira cheirosa os passarinhos cantavam
Minha besta ruana parece que adivinhava
Que eu sozinho não partia, meu amor me acompanhava.

Cantado:

Eu parti de campo grande com a boiada cuiabana
Meu amor veio na anca da minha besta ruana
Hoje tenho quem me alegra na minha velha choupana
20.346 exibições

Comentários 0

Composição: Raul Torres
Esse não é o compositor? Avise-nos.
Contribuição: jeehmarcos
Exibir acordes »
publicidade
fechar