Tião Carreiro e Pardinho

Pagode em Brasília

541.834 exibições
Tom: E

E|--0-11---0-2---0-5---0-4-----0-7---0-2---0-5---0-4---|
B|-0--12--0--4--0--7--0--5----0--9--0--4--0--7--0--5---|
G|-----------------------------------------------------|
D|-----------------------------------------------------|
A|-----------------------------------------------------|
E|-----------------------------------------------------|



E|--0-7---0-9----0-11---0-12---------------------------|
B|-0--9--0--10--0--12--0--9----------------------------|
G|-----------------------------------------------------|
D|-----------------------------------------------------|
A|-----------------------------------------------------|
E|-----------------------------------------------------|


  E
Quem tem mulher que namora
                      B7
Quem tem burro empacador

Quem tem a roça no mato
                       E
Me chama que jeito eu dou
                   E7
Eu tiro a roça do mato
                A    B7
Sua lavoura melhora

E o burro empacador
      A   B7         E
Eu corto ele na espora
     B7            E
E a mulher namoradeira
              B7              E   B7 E B7 E A E B7 E
Eu passo um couro e mando embora
 E
Tem prisioneiro inocente
                    B7
No fundo de uma prisão

Tem muita sogra encrenqueira
                      E
E tem violeiro embrulhão
                      E7
Pros prisioneiro inocente
                A
Eu arranjo advogado
B7
E a sogra encrequeira
       A    B7     E
Eu dou de laço dobrado
      B7             E
E os violeiro embrulhão
          B7            E    B7 E B7 E A B7 E B7 E
Com meus verso tão quebrado
  E
Bahia deu Rui Barbosa
                  B7
Rio Grande deu Getúlio

Em Minas deu Juscelino
                      E
De São Paulo eu me orgulho
                  E7
Baiano não nasce burro
                    A
Gaúcho é o rei das cochilhas
   B7
Paulista ninguém contesta
        A      B7     E
É o brasileiro que brilha
  B7                 E
Quero ver cabra de peito
      B7            E     B7 E B7 E B7 B7 E A B7 E B7 E B7
Pra fazer outra Brasília
 E
No estado de Goiás
                   B7
Meu pagode está mandando

O Bazar do Valdomiro
                   E
Em Brasília é soberano
                         E7
O repique da viola balanceia
          A
O chão goiano
                      E7
Vou fazer minha retirada
                     A     B7
E despedir dos paulistanos
  B7                  E
Adeus que eu já vou embora
       B7          E
Que Goiás ta me chamando
    Composição: Lourival dos Santos/Teddy VieiraColaboração e revisão:
    • Luccas
    • jeehmarcos
    • fjesuino
    • nishioka
    • Ranho
    • +1

    Comentários 20

    • gbrvieira gbrvieira: Postado em 19/12/2014 16:04

      procurem ritmo vanera no youtube, aí aprende de boa

    • Alexandre Alexandre: Postado em 24/10/2014 22:15

      video aula!!!!!!!!!!! Essa merece

    • whiskerplays whiskerplays: Postado em 26/08/2014 13:34

      o ritimo é pagode de viola da pra fazer no violão , mas se quiser acompanhar uma viola com o violão o ritimo é esse : ↓ ↓↑ ↓ c tempo

    • Kleber Kleber: Postado em 13/04/2013 13:59

      tentem acompanhar pela cifra do eduardo costa, fica perfeito!!

    • super39 super39: Postado em 04/09/2012 20:34

      O ritmo é BBCX

    • junim12345 junim12345: Postado em 23/07/2012 18:15

      TOM E EM MI!

    • viniciusmtl viniciusmtl: Postado em 30/06/2012 21:14

      SOLINHO MEIO DIFICIL EM

    • kalel.ab kalel.ab: Postado em 10/06/2012 15:12

      violões com afinação (E A D G B E) tocar no tom: E

    • pedrinpena pedrinpena: Postado em 10/05/2012 19:42

      2º parte
      E|--0-5---0--7----0-9---0------12----|
      B|-0---7---0--9--0---11--0-----12---|
      G|---------------------------------12---|

    • pedrinpena pedrinpena: Postado em 10/05/2012 19:41

      TENTEM ESSE MODO =>
      E|--0-8---0-2---0-5---0-4-----0-7---0-2---0-5---0-4---|
      B|-0---9--0--4--0--7--0--5----0--8--0--4--0--7--0--5---|

    Exibindo 10 de 20 comentários Mostrar mais ver todos »

    conseguiu tocar?

    • Andressa
    • kamylla.eduarda.16
    • ederlucas.cavazoni
    • Marcos
    • jorgephelipe.deoliveiraschabarum
    • charles.davirocha
    • igorsilvaguitar
    • •••
    0:00 / 0:00

    Capítulos

      1 versão de Guitar Proformatodownloadscontribuição
      play/pausefechar subir/descer velocidade
      6ª corda E5ª corda A4ª corda D3ª corda G2ª corda B1ª corda E
        acordes
        publicidad
        fechar
        ok