Pagode em Brasília

Tião Carreiro e Pardinho

 Tião Carreiro e Pardinho
Tom: E
		
(intro) E B7


E|---0-11-----0-2-----0-5-----0-4------0-7-----0-2-----0-5-----0-4---|
B|-0---12---0---4---0---7---0---5----0---9---0---4---0---7---0---5---|
G|-------------------------------------------------------------------|
D|-------------------------------------------------------------------|
A|-------------------------------------------------------------------|
E|-------------------------------------------------------------------|

                                 H.N

E|---0-7-----0--9-----0-11-----0-12----------------------------------|
B|-0---9---0---10---0---12---0---12----------------------------------|
G|-------------------------------------------------------------------|
D|-------------------------------------------------------------------|
A|-------------------------------------------------------------------|
E|-------------------------------------------------------------------|


E
Quem tem mulher que namora
                    B7
Quem tem burro empacador

Quem tem a roça no mato
                       E
Me chama que jeito eu dou
                   E7
Eu tiro a roça do mato
               A  E A
Sua lavoura melhora
B7
E o burro empacador
                 E
Eu corto ele na espora
                 
                 B7
E a mulher namoradeira
                           E
Eu passo um couro e mando embora

(intro)

E
Tem prisioneiro inocente
                 B7
No fundo de uma prisão

Tem muita sogra encrenqueira
                 E
E tem violeiro embrulhão
                  E7
Pros prisioneiro inocente
               A  E A
Eu arranjo advogado
B7
E a sogra encrequeira
                  E
Eu dou de laço dobrado
B7
E os violeiro embrulhão
                      E
Com meus verso tão quebrado

(intro)

E
Bahia deu Rui Barbosa
                 B7
Rio Grande deu Getúlio

Em Minas deu Juscelino
                    E
De São Paulo eu me orgulho
                  E7
Baiano não nasce burro
                      A  E A
Gaúcho arrenda as cochilhas
B7
Paulista ninguém contesta
                     E
É o brasileiro que brilha
B7
Quero ver cabra de peito
                   E
Pra fazer outra Brasília

(intro)

E
No estado de Goiás
                   B7
Meu pagode está mandando

O Bazar do Valdomiro
                 E
Em Brasília é soberano
               E7
O repique da viola balanceia
         A  E A
O chão goiano
B7
Vou fazer minha retirada
                     E
E despedir dos paulistanos
B7
Adeus que eu já vou embora
                   E
Que Goiás ta me chamando

(intro)

Comentários 19

  • Alexandre Alexandre: Postado em 24/10/2014 22:15

    video aula!!!!!!!!!!! Essa merece

  • whiskerplays whiskerplays: Postado em 26/08/2014 13:34

    o ritimo é pagode de viola da pra fazer no violão , mas se quiser acompanhar uma viola com o violão o ritimo é esse : ↓ ↓↑ ↓ c tempo

  • Kleber Kleber: Postado em 13/04/2013 13:59

    tentem acompanhar pela cifra do eduardo costa, fica perfeito!!

  • super39 super39: Postado em 04/09/2012 20:34

    O ritmo é BBCX

  • junim12345 junim12345: Postado em 23/07/2012 18:15

    TOM E EM MI!

  • viniciusmtl viniciusmtl: Postado em 30/06/2012 21:14

    SOLINHO MEIO DIFICIL EM

  • kalel.ab kalel.ab: Postado em 10/06/2012 15:12

    violões com afinação (E A D G B E) tocar no tom: E

  • pedrinpena pedrinpena: Postado em 10/05/2012 19:42

    2º parte
    E|--0-5---0--7----0-9---0------12----|
    B|-0---7---0--9--0---11--0-----12---|
    G|---------------------------------12---|

  • pedrinpena pedrinpena: Postado em 10/05/2012 19:41

    TENTEM ESSE MODO =>
    E|--0-8---0-2---0-5---0-4-----0-7---0-2---0-5---0-4---|
    B|-0---9--0--4--0--7--0--5----0--8--0--4--0--7--0--5---|

  • lindoow lindoow: Postado em 07/05/2012 14:16

    Cifra club,coloca video aula ai com alguém tocando viola.É nois

Exibindo 10 de 19 comentários Mostrar mais ver todos »
Composição: Lourival dos Santos/Teddy Vieira
Esse não é o compositor? Avise-nos.
Contribuição: Ranho Correções: Luccas , jeehmarcos e mais 2 »
Exibir acordes »
publicidade
fechar