Tom: C
		
   ( INTRODUÇÃO)
O SOLO É FEITO PELO VIOLÃO DE 12 CORDAS


e|--------------------------------------------------------------------------------------------------                                                                                                      B|------------------------------------------------------------------------------------------------------
G|------------2--------------2---------------------------------------------------------------------------
D|------2----------2----3----------2---3-----0-----------------------------------------------------
A|--3----------------------------------------------------------------------------------------------
E|-----------------------------------------------------------------------------------------



e|------------------------------------------------------------------------------------------------                                                                                                    -B|----------------------------------------------------1----------------------
G|-----0----0--0---0------------------------------0--------------------------------------
D|------------------------3--2--------------------2----------------------------------------------
A|---------------------------------0--2---3-----3-----------------------------------------------------
E|-----------------------------------------------------------------------------------------


          C
Sobre as margens de uma estrada 
       G                       C
uma simples pensão existia
       C7                 F
a comida era tipo caseira
             C              F C F
e o frango caipira era o prato do dia
         C                      F
Proprietário homem de respeito
        C               F F7
ali trabalhava com sua familia
                      G7
cozinheira era a sua esposa
                           C
e a garçonete era uma das filhas

SOLO:


e|---------------------------------------------------------------------------------------------------------                                                                                          B|------------------------------------------------------------------------------------------------------
G|------------2--------------2---------------------------------------------------------------------------
D|------2----------2----3----------2---3-----0-----------------------------------------------------
A|--3----------------------------------------------------------------------------------------------
E|-----------------------------------------------------------------------------------------



e|---------------------------------------------------------------------------------------------------------                                                                                            B|----------------------------------------------------1--------------------------------------------------
G|-----0----0--0---0------------------------------0--------------------------------------
D|------------------------3--2--------------------2----------------------------------------------
A|---------------------------------0--2---3-----3-----------------------------------------------------
E|-----------------------------------------------------------------------------------------


(OS ACORDES SÃO OS MESMOS)
Foi chegando naquela pensão
um viajante já fora de hora
foi dizendo para a garçonete
me traga um frango vou jantar agora
Eu estou bastante atrasado
terminando eu já vou embora
ela então respondeu num sorriso
mamãe tá de pé, pode crer, não demora
SOLO:

e|---------------------------------------------------------------------------------------------------------                                                                                          B|------------------------------------------------------------------------------------------------------
G|------------2--------------2---------------------------------------------------------------------------
D|------2----------2----3----------2---3-----0-----------------------------------------------------
A|--3----------------------------------------------------------------------------------------------
E|-----------------------------------------------------------------------------------------



e|---------------------------------------------------------------------------------------------------------                                                                                            B|----------------------------------------------------1--------------------------------------------------
G|-----0----0--0---0------------------------------0--------------------------------------
D|------------------------3--2--------------------2----------------------------------------------
A|---------------------------------0--2---3-----3-----------------------------------------------------
E|-----------------------------------------------------------------------------------------


(CONTINUA TOCANDO OS MESMOS ACORDES)
Quando ela foi servir a mesa
delicada e com muito bom jeito
me desculpe mas trouxe uma franga
talvez não esteja cozida direito
O viajante foi lhe respondendo
pra mim franga crua talvez eu aceito
sendo uma igual a você
seja a qualquer hora também não enjeito
SOLO:

e|---------------------------------------------------------------------------------------------------------                                                                                            B|------------------------------------------------------------------------------------------------------
G|------------2--------------2---------------------------------------------------------------------------
D|------2----------2----3----------2---3-----0-----------------------------------------------------
A|--3----------------------------------------------------------------------------------------------
E|-----------------------------------------------------------------------------------------



e|---------------------------------------------------------------------------------------------------------                                                                                            B|----------------------------------------------------1--------------------------------------------------
G|-----0----0--0---0------------------------------0--------------------------------------
D|------------------------3--2--------------------2----------------------------------------------
A|---------------------------------0--2---3-----3-----------------------------------------------------
E|-----------------------------------------------------------------------------------------


(MESMA SEQÜENCIA DE ACORDES)
Foi saindo de cabeça baixa
pra queixar ao seu pai a mocinha
minha filha mate outra franga
pode temperar porém não cozinha
Vou levar essa franga na mesa
se bem que comigo a conversa é curtinha
é a coisa que mais eu detesto
ver homem barbado fazendo gracinha
SOLO:

e|---------------------------------------------------------------------------------------------------------                                                                                          B|------------------------------------------------------------------------------------------------------
G|------------2--------------2---------------------------------------------------------------------------
D|------2----------2----3----------2---3-----0-----------------------------------------------------
A|--3----------------------------------------------------------------------------------------------
E|-----------------------------------------------------------------------------------------



e|---------------------------------------------------------------------------------------------------------                                                                                          B|----------------------------------------------------1--------------------------------------------------
G|-----0----0--0---0------------------------------0--------------------------------------
D|------------------------3--2--------------------2----------------------------------------------
A|---------------------------------0--2---3-----3-----------------------------------------------------
E|-----------------------------------------------------------------------------------------


(CONTINUA TOCANDO OS ACORDES DA INTRO)
Foi chegando o velho e dizendo
vim trazer o pedido que fez
quando o cara tentou recusar
já se viu na mira de um Schimitt inglês
O negócio  foi limpar o prato
quando o proprietário lhe disse cortez
nós estamos de portas abertas
                        (F G7 C)              
pra servir a moda que pede o freguês

FINAL:SOMENTE O VIOLÃO DE 12 CORDAS

e|---------8-----------1---------3---------------------------------------
B|---------8-----------1---------3--------------------------------------
G|----------9----------2-----------4--------------------------------
D|-----------10--------3----------5-------------------------------------
A|------------10-------3-----------5------------------------------
E|-------------8---------1-----------3--------------------------


OBS:
Esta transcrição eu fiz com a ajuda da minha irmã,usando uma viola de 10 cordas  e um violão de dóiS
braços, o braço de cima tem 12 cordas e o de baixo tem 6cordas. A viola toca os acordes e o violão de 12
cordas toca o solo,o violão de 6cordas toca ao redor dos acordes da viola de 10 cordas.

versão em A


E|-----5-------------
B|---5-----5-7-5-4-5-


G-6-----6-----------
D|-------------------
A|-------------------    Por alaercio.mecabo@terra.com.br
E|-------------------



E|---------------------------
B|---------------------------
G|---------------------------
D|---4-6-4---------------6-7-


A-7-------7-5-4-------4-----
E|---------------7-5-5-------


Prato do Dia

Intro: A E E7 A E A

          A
Sobre as margens de uma estrada 
       E                       A
uma simples pensão existia
       A7                 D
a comida era tipo caseira
             A              D A D
e o frango caipira era o prato do dia
         A                      D
Proprietário homem de respeito
        A               D D7
ali trabalhava com sua familia
                      E7
cozinheira era a sua esposa
                           A
e a garçonete era uma das filhas
(Intro)
Foi chegando naquela pensão
um viajante já fora de hora
foi dizendo para a garçonete
me traga um frango vou jantar agora
Eu estou bastante atrasado
terminando eu já vou embora
ela então respondeu num sorriso
mamãe tá de pé, pode crer, não demora
(Intro)
Quando ela foi servir a mesa
delicada e com muito bom jeito
me desculpe mas trouxe uma franga
talvez não esteja cozida direito
O viajante foi lhe respondendo
pra mim franga crua talvez eu aceito
sendo uma igual a você
seja a qualquer hora também não enjeito
(Intro)
página 1Foi saindo de cabeça baixa
pra queixar ao seu pai a mocinha
minha filha mate outra franga
pode temperar porém não cozinha
Vou levar essa franga na mesa
se bem que comigo a conversa é curtinha
é a coisa que mais eu detesto
ver homem barbado fazendo gracinha
(Intro)
Foi chegando o velho e dizendo
vim trazer o pedido que fez
quando o cara tentou recusar
já se viu na mira de um Schimitt inglês
O negócio  foi limpar o prato
quando o proprietário lhe disse cortez
nós estamos de portas abertas
                        (D E7 A)              
pra servir a moda que pede o freguês
120.214 exibições

Comentários 0

Composição: Tião Carreiro E Geraldino
Esse não é o compositor? Avise-nos.
Contribuição: edu Correções: Alaercio »
Exibir acordes »
publicidade
fechar