Bichos Escrotos

Titãs

 Titãs
Linha Principal
---------------

G --------------------------------------------------------
D --------------------------------------------------------
A -5--0--3--0--5--0--3-0-3-0-5----------------------------
E --------------------------------------------------------

Essa linha é tocada quase a música inteira, nos trechos: 
"Bichos, saiam dos lixos, Baratas.... "


Refrão
------

G --------------------------------------------------------
D --------------------------------------------------------
A -5---5---0---3---5---5---0---3---5----------------------
E --------------------------------------------------------

Nos trechos cantados: "Bichos Escrotos, saiam dos esgotos...
Bichos Escrotos, venham me pegar...."

G --------------------------------------------------------
D --------------------------------------------------------
A -3---3-------0---3---3-------0---3---3------------------
E ---------3---------------3------------------------------

Essa é na segunda parte dos refrões "Meu lar.... meu jantar"...



Solo
----

Esse solo foi tirado baseado na versão do estúdio ao vivo... 
na verdade ele é só a linha principal da música, tocada bem mais
rápido..
Na maioria das vezes dando duas notas no lugar de uma...

O solo original, cheio de slaps e efeitos, não consegui tirar....

G --------------------------------------------------------
D --------------------------------------------------------
A -5---5---5---5---0---3---0---3---0---3---0---5--5--5----
E --------------------------------------------------------

É só essa linha, tocada bem rápido...



_______________________________________________________
Contribuição: Alker(ratherguns@bol.com.br)

Comentários 0

Composição: Nando Reis / Arnaldo Antunes / Sérgio Britto
Esse não é o compositor? Avise-nos.
publicidade
fechar