Isso

Titãs

 Titãs
Tom: E
		
Versão 1:

Intro:                                        

e|-----0-------------0-------------0-------------0--
B|--------------------------------------------------
G|---1-----------1--------------1------------1------ 
D|-2-------2--0----------0--------------------------
A|----------------------------4-------4--3----------
E|--------------------------------------------------


Isso, que acontece com a gente


e|----0-------------0-------------0----------------
B|---------------------------------------------0----
G|---1-----------1--------------1------------1------ 
D|-2-------2--0----------0--------------------------
A|----------------------------4-------4--3----------
E|--------------------------------------------------

Acontece sempre com qualquer casal


e|----0-------------0-------------0-------------0--
B|--------------------------------------------------
G|---1-----------1--------------1------------1------ 
D|-2-------2--0----------0--------------------------
A|----------------------------4-------4--3----------
E|--------------------------------------------------

Isso, ataca de repente


e|----0-------------0-------------0----------------
B|---------------------------------------------0----
G|---1-----------1--------------1------------1------ 
D|-2-------2--0----------0--------------------------
A|----------------------------4-------4--3----------
E|--------------------------------------------------

Não respeita cor, credo ou classe social


e|----0-------------0-------------0-------------0--
B|--------------------------------------------------
G|---1-----------1--------------1------------1------ 
D|-2-------2--0----------0--------------------------
A|----------------------------4-------4--3----------
E|--------------------------------------------------

Isso, Isso

    __
   | E       G#           A            B
   | Parecia que não ia acontecer com a gente
   | E            G#          A           B
   | Nosso amor era tão firme forte e diferente
   |   __ 
 2º|  | E    G#    A 
 P |  | Não vá  dizer
 a | 2|      F#m              B
 r | V| Que eu  não avisei você
 t | e| F#m              B
 e | z| Olha o que vai fazer
   | e|      G#m    B
   | s| Não vá  dizer
   |  |__ 
   |   
   |__


Solo: (F#m A B)

F#m          A         B
Não adianta mesmo reclamar
F#m           A            B   
Acreditar que basta apenas se deixar levar

Solo de Baixo(nos próximos 2 versos):


G|-----------------------------------------------------------------------------
D|---2--2-----2-----0--0-----0-------------------------------------------------
A|----------2-----2---------2-----0---3----3----0----3---0----2----2-----------
E|-----------------------------------------------------------------------------

Isso, que atrapalha nossos planos


G|-----------------------------------------------------------------------------
D|---2--2-----2-----0--0-----0-------------------------------------------------
A|----------2-----2---------2-----0---3----3----0----3---0----2----2-----------
E|-----------------------------------------------------------------------------

Derrubou o muro, invadiu nosso quintal


e|----0-------------0-------------0-------------0--
B|--------------------------------------------------
G|---1-----------1--------------1------------1------ 
D|-2-------2--0----------0--------------------------
A|----------------------------4-------4--3----------
E|--------------------------------------------------

Isso, passam-se os anos

e|----0-------------0-------------0----------------
B|---------------------------------------------0----
G|---1-----------1--------------1------------1------ 
D|-2-------2--0----------0--------------------------
A|----------------------------4-------4--3----------
E|--------------------------------------------------


Sempre foi assim e será sempre igual

e|----0-------------0-------------0-------------0--
B|--------------------------------------------------
G|---1-----------1--------------1------------1------ 
D|-2-------2--0----------0--------------------------
A|----------------------------4-------4--3----------
E|--------------------------------------------------

Isso,        Isso

Repete: 2º Parte

e|----0-------------0-------------0-------------0--
B|--------------------------------------------------
G|---1-----------1--------------1------------1------ 
D|-2-------2--0----------0--------------------------
A|----------------------------4-------4--3----------
E|--------------------------------------------------

Isso,       isso

E


Crazy Bone na Areeaa!!!
Música Cifrada de: Daniel Messias Vergani (Mr.Daniel)

_______________________________________________________




Versão 2:

Intro:E E7 A Am 

E    E7
Isso
        A  	    Am
Que acontece com a gente
E         E7             A      B
Acontece sempre com qualquer casal
E    E7
Isso
 A         Am
Ataca de repente 
E            E7		   A          B
Não respeita cor, credo ou classe social
E   E7 A   Am E E7 A B  
Isso,  isso

E       G# 	    A              B 	
Parecia que não ia acontecer com a gente
E       G# 	    A              B 	
Nosso amor era tão firme, forte e diferente
E   G#m   A 
Não vá dizer
F#m               B
Que não avisei você
F#m               B 
Olha o que vai fazer
G#m        B
Não vá dizer

F#m          A          B
Não adianta mesmo reclamar
F#m            A                        B
Acreditar que basta apenas se deixar levar

E   E7
Isso
         A     	     Am 
Que atrapalha nossos planos
E           E7        A             B
Derrubou o muro, invadiu nosso quintal
E   E7
Isso
 A           Am 
Passam-se os anos 
E           E7        A             B
Sempre foi assim e será sempre igual 
E   E7 A   Am
Isso, isso

E       G# 	    A              B 	
Parecia que não ia acontecer com a gente
E       G# 	    A              B 	
Nosso amor era tão firme, forte e diferente
E   G#m   A 
Não vá dizer
F#m               B
Que não avisei você
F#m               B 
Olha o que vai fazer
G#m        B
Não vá dizer

E   E7 A   Am
Isso, isso...

Comentários 5

  • spcf336 spcf336: Postado em 05/07/2013 17:44

    a primeira parte esta certa so a segunda que tem uma nota que tem que ser feita um pouco antes

  • mauzayat mauzayat: Postado em 23/07/2012 12:19

    ta certinho.... soh pega o tempo...

  • decor3 decor3: Postado em 22/09/2011 14:14

    a segunda parte ta sertissima mais eu to começando agora e tenho muita dificuldade no ritimo vcs poderia colocar a batida tbm no site

  • kerston kerston: Postado em 15/09/2011 20:55

    o solinho da intro ta certo pelo menos

  • chacra chacra: Postado em 02/08/2011 11:26

    ISSO TA ERRADO

Composição: Tony Bellotto
Esse não é o compositor? Avise-nos.
Contribuição: dvergani Correções: boegatinha e mais 1 »
Exibir acordes »
publicidade
fechar