Mentiras

Titãs

 Titãs
Tom: A
		
Intro: Riff 1

Riff 2
Querem me ensinar
Riff 3
Querem me julgar
pelo que eu fiz

Riff 1

Riff 2
Querem me julgar
Riff 3
Querem me ensinar
como se diz

e|------------------------------|---|
B|------------------------------|   |
G|-------------------9----------|   |
D|-------------------9----------|   |
A|-------------------7----------|   |
E|---5-4-5-7-5-4-(0)------------|   |
		    Mentiras        |- (2x) Refrão
e|------------------------------|   |
B|------------------------------|   |
G|-------------------9----------|   |
D|-------------------9----------|   |
A|-------------------7----------|   |
E|---5-4-5-7-5-4-(0)------------|---|
     Ahhh...

Riff 1 (2x)

Riff 2
Querem me salvar
Riff 3
Querem me curar
do que eu não sofro
Riff 2
Riff 3
do que eu não sofro
Riff 2
Querem me salvar
Riff 3
Querem me curar
mas eu só ouço

e|------------------------------|---|
B|------------------------------|   |
G|-------------------9----------|   |
D|-------------------9----------|   |
A|-------------------7----------|   |
E|---5-4-5-7-5-4-(0)------------|   |
		    Mentiras        |- (2x) Refrão
e|------------------------------|   |
B|------------------------------|   |
G|-------------------9----------|   |
D|-------------------9----------|   |
A|-------------------7----------|   |
E|---5-4-5-7-5-4-(0)------------|---|
     Ahhh...

Riff 4 (2x)

Riff 5
Eu não posso viver comigo
Riff 6
Eu não posso fugir de mim
Riff 5
Eu não quero que gritem comigo
Riff 6
Eu não quero que riam de mim
Riff 5
Eu não quero que falem
Riff 6
Eu não quero que digam

e|------------------------------|---|
B|------------------------------|   |
G|-------------------9----------|   |
D|-------------------9----------|   |
A|-------------------7----------|   |
E|---5-4-5-7-5-4-(0)------------|   |
		    Mentiras        |- (2x) Refrão
e|------------------------------|   |
B|------------------------------|   |
G|-------------------9----------|   |
D|-------------------9----------|   |
A|-------------------7----------|   |
E|---5-4-5-7-5-4-(0)------------|---|
     Ahhh...

Riff 1 (2x)

Riff 2
Querem me curar
Riff 3
do que eu não sofro
Riff 2
Querem me julgar
Riff 3
pelo que eu fiz
Riff 2
Querem me salvar
Riff 3
mas eu só ouço
Riff 2
Querem me ensinar
Riff 3
como se diz

e|------------------------------|---|
B|------------------------------|   |
G|-------------------9----------|   |
D|-------------------9----------|   |
A|-------------------7----------|   |
E|---5-4-5-7-5-4-(0)------------|   |
		    Mentiras        |- (2x) Refrão
e|------------------------------|   |
B|------------------------------|   |
G|-------------------9----------|   |
D|-------------------9----------|   |
A|-------------------7----------|   |
E|---5-4-5-7-5-4-(0)------------|---|
     Ahhh...

_________Seguencias de Riff's_________

Riff 1

e|----------------------------------------|
B|----------------------------------------|
G|----------------------------------------|
D|-------------XX-9----------------4------|
A|-------------XX-9------------5-7--------|
E|----5--4-5-7-XX-7---5--4-5-7------------|


Riff 2

e|--------------------|
B|--------------------|
G|--------------------|
D|-------------XX-9---|
A|-------------XX-9---|
E|----5--4-5-7-XX-7---|


Riff 3

e|---------------------|
B|---------------------|
G|---------------------|
D|--------------4------|
A|----------5-7--------|
E|-5--4-5-7------------|


Riff 4

e|-------------------------------------|
B|-------------------------------------|
G|-------------------------------------|
D|-------------------------------------|
A|-------------------------------------|
E|---0-0000-4h5-4-7-4--0-0000-4h5-5-4--|


Riff 5

e|---------------------|
B|---------------------|
G|---------------------|
D|---------------------|
A|---------------------|
E|---0-0000-4h5-4-7-4--|


Riff 6

e|-------------------|
B|-------------------|
G|-------------------|
D|-------------------|
A|-------------------|
E|---0-0000-4h5-5-4--|
13.074 exibições

Comentários 0

Composição: Marcelo Fromer / Tony Bellotto / Sérgio Britto
Esse não é o compositor? Avise-nos.
Contribuição: Danilo Trindade Correções: VLADI DU KAVAKO ...........® e mais 1 »
Consegui tocarAinda não conseguiram tocar essa música. Seja o primeiro!
    Não consegui tocar
    Exibir acordes »
    publicidade
    fechar