Os cegos do castelo

Titãs

 Titãs
Tom: F
		
Intro 4x: C  Fm6/C

Primeira Parte:

C     Fm6/C             C  Fm6/C
  Eu não quero mais mentir
C      Fm6/C                   C  Fm6/C
  Usar espinhos que só causam dor
C                       Fm6/C
  Eu não enxergo mais o inferno 
           C  Fm6/C
Que me atraiu
C               Fm6/C
  Dos cegos do castelo 
              Am7  Am6
Me despeço e vou
       F
A pé até encontrar
      Fm/Ab
Um caminho, o lugar
            C  Fm6/C (4x)
Pro que eu sou

C     Fm6/C             C  Fm6/C
  Eu não quero mais dormir
C          Fm6/C
  De olhos abertos 
               C  Fm6/C
Me esquenta o sol
C                       Fm6/C
  Eu não espero que um revólver 
            C  Fm6/C
Venha explodir
C        Fm6/C
  Na minha testa 
         Am7  Am6
Se anunciou
        F
A pé a fé devagar
        Fm/Ab
Foge o destino do azar
        C  Fm6/C
Que restou

Pré-refrão:

   C       Fm6/C      C  Fm6/C
E se você puder me olhar
   C       Fm6/C       C  Fm6/C
E se você quiser me achar
   C           Bb6       G
E se você trouxer o seu lar

Refrão:

C
  Eu vou cuidar 
             F
Eu cuidarei dele
           Bb
Eu vou cuidar
    C
Do seu jardim

               
Eu vou cuidar 
                   F
Eu cuidarei muito bem dele
    Bb
Eu vou cuidar
                Dm7
Eu cuidarei do seu jantar
             F
Do céu e do mar 
                C  (interlúdio)
E de você e de mim

Primeira Parte:

C     Fm6/C             C  Fm6/C
  Eu não quero mais mentir
C      Fm6/C                   C  Fm6/C
  Usar espinhos que só causam dor
C                       Fm6/C
  Eu não enxergo mais o inferno 
           C  Fm6/C
Que me atraiu
C               Fm6/C
  Dos cegos do castelo 
              Am7  Am6
Me despeço e vou
       F
A pé até encontrar
      Fm/Ab
Um caminho, o lugar
            C  Fm6/C (2x)
Pro que eu sou

C     Fm6/C             C  Fm6/C
  Eu não quero mais dormir
C          Fm6/C
  De olhos abertos 
               C  Fm6/C
Me esquenta o sol
C                       Fm6/C
  Eu não espero que um revólver 
            C  Fm6/C
Venha explodir
C        Fm6/C
  Na minha testa 
         Am7  Am6
Se anunciou
        F
A pé a fé devagar
        Fm/Ab
Foge o destino do azar
        C  Fm6/C
Que restou

Pré-refrão:

   C       Fm6/C      C  Fm6/C
E se você puder me olhar
   C       Fm6/C       C  Fm6/C
E se você quiser me achar
   C           Bb6       G
E se você trouxer o seu lar

Refrão:

C
  Eu vou cuidar 
             F
Eu cuidarei dele
           Bb
Eu vou cuidar
    C
Do seu jardim

               
Eu vou cuidar 
                   F
Eu cuidarei muito bem dele
    Bb
Eu vou cuidar
                Dm7
Eu cuidarei do seu jantar
             F
Do céu e do mar 
                C  (interlúdio)
E de você e de mim

Final:

C  C/Bb  Am7  Fm9/Ab

C  C/Bb  Am7  Fm9/Ab  C


Passagem Pré-refrão:
 

   C        Bb6
E|------------------------------------------|
B|------------------------------------------|
G|-----0--------0---------------------------|
D|---2--------0-----------------------------|
A|-3-----3--1-----1-------------------------|
E|------------------------------------------|


Interlúdio:


   C
E|-0-0-0-0-0---0-0-0---0-0-0---0-0-0---0-0--|
B|-1-1-1-1-1---1-1-1---1-1-1---1-1-1---1-1--|
G|-0-0-0-0-0---0-0-0---0-0-0---3-3-3---0-0--|
D|-2-2-2-2-2---3-3-3---2-2-2---2-2-2---2-2--|
A|-3-3-3-3-3---3-3-3---3-3-3---3-3-3---3-3--|
E|------------------------------------------|


Final:

Parte 1


   C
E|-0-0-0-0-0---0-0-0---0-0-0---0-0-0---0-0--|
B|-1-1-1-1-1---1-1-1---1-1-1---1-1-1---1-1--|
G|-0-0-0-0-0---0-0-0---0-0-0---3-3-3---0-0--|
D|-2-2-2-2-2---3-3-3---2-2-2---2-2-2---2-2--|
A|-3-3-3-3-3---3-3-3---3-3-3---3-3-3---3-3--|
E|------------------------------------------|


Parte 2


   C/Bb
E|-0-0-0-0-0---0-0-0---0-0-0---0-0-0---0-0--|
B|-1-1-1-1-1---1-1-1---1-1-1---1-1-1---1-1--|
G|-0-0-0-0-0---0-0-0---0-0-0---3-3-3---0-0--|
D|-2-2-2-2-2---3-3-3---2-2-2---2-2-2---2-2--|
A|-1-1-1-1-1---1-1-1---1-1-1---1-1-1---1-1--|
E|------------------------------------------|


Parte 3


   Am7
E|-0-0-0-0-0---0-0-0---0-0-0---0-0-0---0-0--|
B|-1-1-1-1-1---1-1-1---1-1-1---1-1-1---1-1--|
G|-0-0-0-0-0---0-0-0---0-0-0---3-3-3---0-0--|
D|-2-2-2-2-2---3-3-3---2-2-2---2-2-2---2-2--|
A|-0-0-0-0-0---0-0-0---0-0-0---0-0-0---0-0--|
E|------------------------------------------|


Parte 4


   Fm9/Ab
E|------------------------------------------|
B|-1-1-1-1-1---1-1-1---1-1-1---1-1-1---1-1--|
G|-0-0-0-0-0---0-0-0---0-0-0---3-3-3---0-0--|
D|-2-2-2-2-2---3-3-3---3-3-3---3-3-3---3-3--|
A|------------------------------------------|
E|-4-4-4-4-4---4-4-4---4-4-4---4-4-4---4-4--|

Comentários 3

  • lontradesmaiada lontradesmaiada: Postado em 18/03/2015 11:33

    Fica melhor com pestana no dedo 1, formando um Fm6 no lugar de Fm6/C

  • americothyago americothyago: Postado em 19/01/2012 15:23

    Perfeita a música!

  • lucas_alegre7 lucas_alegre7: Postado em 08/04/2011 15:32

    Titãs melhor de todos

Composição: Nando Reis
Esse não é o compositor? Avise-nos.
Contribuição: adrianoferreira Correções: Leo Eymard »
Exibir acordes »
publicidade
fechar