Prá Dizer Adeus

Titãs

 Titãs
Tom: G
		
(intro) G

(enquanto toca o acorde solte e aperte a corda "A" rapidamente com o indicador)


E |-3-3-3---3-3-3---3-3-3---3-3-3--------|
B |-3-3-3---3-3-3---3-3-3---3-3-3--------|
G |-0-0-0---0-0-0---0-0-0---0-0-0--------|
D |-0-0-0---0-0-0---0-0-0---0-0-0--------|
A |-2-2-2p0p2-2-2p0p2-2-2p0p2-2-2--------|
E |-3-3-3---3-3-3---3-3-3---3-3-3--------|


(intro baixo)
(pré-acorde)                                                          Vo- CÊ aparaceu...

G |---------------|-------------|-------------|-------------|-----------|----
D |-5-2--------2--|-------------|-------------|-------------|-----------|----
A |------5-2-5---5|------------2|------------2|5--2-5------2|-----------|5~--
E |---------------|3--0-3--0-5--|3--0-3--0-5--|--------0-5--|3-335-3-2-0|----


   D       C	  D     C
Você apareceu do nada
 G        D      C     G
E você mexeu demais comigo
 G        D      C     G
Não quero ser só mais um amigo
   D             C   D    C
Você nunca me viu sozinho
     G        D      C     G
E você nunca me ouviu chorar
  G        D      C     G    C D
Não dá pra imaginar quanto

(refrão 2x)

(riff 1)

E |------------------------|
B |------------------------|
G |---------0-------2------|
D |-------2-------4--------|
A |-0-2-3-----3-5-----5----|
E |------------------------|


   G       B7       C
É cedo ou tarde demais
       G    D           C     G
Pra dizer adeus, pra dizer jamais
   G       B7       C
É cedo ou tarde demais
       G    D           C     G
Pra dizer adeus, pra dizer jamais

(riff 2)

E |------------------------|
B |----0----------0-----0--|
G |-------2-0-2-----0-2----|
D |------------------------|
A |------------------------|
E |-3-----3-----3-----3----|


    D       C	      D     C
Às vezes fico assim pensando
 G        D      C     G
Essa distância é tão ruim
 G        D      C     G
Por que você não vem pra mim
   D             C   D    C
Eu já fiquei tão mal sozinho
     G        D      C     G
Eu já tentei, eu quis chamar
  G        D      C     G    C D
Não dá pra imaginar quanto

(refrão 2x)

( D C D C G)

(refrão 2x)
Texto Colunas
Alterar tom ½ tom ½ tom
afinação acordes na letra esconder tabs mais »

Comentários 4

  • jumento jumento: Postado em 26/05/2013 10:32

    ives de tocar a segunda casa que e coda LA.:na verdade e pra tocar a corda RE.

  • nihbarcia nihbarcia: Postado em 04/09/2011 17:59

    Vcs poderiam colocar a vídeo aula com as tablaturas e com os riffs?

  • nihbarcia nihbarcia: Postado em 04/09/2011 17:57

    Não entendi o pq tem as tablaturas e riffs na cifra se elas não são utilizadas durante a vídeo-aula nesta música... Pq não tem?

  • vitowoo vitowoo: Postado em 29/06/2011 10:21

    '
    foodddaaaa
    de
    mais
    esssa
    musica

Composição: Tony Bellotto/Nando Reis
Esse não é o compositor? Avise-nos.
Contribuição: GG Correções: Sena e mais 1 »
  1. Domingo de Manhã - Marcos e Belutti Manteve-se 103.166 exibições
  2. Logo Eu - Jorge e Mateus Manteve-se 46.829 exibições
  3. Não Vai Voltar - Onze:20 Manteve-se 44.151 exibições
  4. Maus Bocados - Cristiano Araújo Manteve-se 42.752 exibições
  5. Pra Você - Onze:20 Manteve-se 41.498 exibições
  6. Recaídas - Henrique e Juliano Manteve-se 41.175 exibições
  7. Só Os Loucos Sabem - Charlie Brown Jr. Manteve-se 31.682 exibições
  8. Aonde Quer Que Eu Vá - Os Paralamas do Sucesso Manteve-se 30.919 exibições
  9. Pais e Filhos - Legião Urbana Manteve-se 30.143 exibições
  10. Calma - Jorge e Mateus Manteve-se 30.011 exibições
  1. Jorge e Mateus- Manteve-se 300.809 exibições
  2. Legião Urbana- Manteve-se 220.750 exibições
  3. Charlie Brown Jr.- Manteve-se 152.057 exibições
  4. Marcos e Belutti- Manteve-se 127.052 exibições
  5. Fernandinho- Manteve-se 123.817 exibições
  6. Henrique e Juliano- Manteve-se 117.171 exibições
  7. Onze:20- Manteve-se 109.165 exibições
  8. Bruno e Marrone- Manteve-se 108.453 exibições
  9. Luan Santana- Manteve-se 95.192 exibições
  10. Thalles Roberto- Manteve-se 93.208 exibições
Exibir acordes »

Cifras e tabs

Fórum Cifra Club

Aprenda

Cifra Club News

Mais Serviços Cifra Club ID

Studio Sol

©1996 - 2014 Cifra Club · o primeiro, maior e mais acessado do Brasil · 335 mil músicas · 6.2 milhões pessoas cadastradas

publicidade
fechar