Querem meu sangue

Titãs

 Titãs
                              Acústico

Riff 1

G|-5-5-5-0--------0---5-5-5-0-----------------|
D|----------3-3-3-------------3-3-3-3-3-3-3-3-|
A|--------------------------------------------|
E|--------------------------------------------|

Riff 2

G|-----5-----5-------5-----5-------2------2-------2------2-----|
D|-5-5--5--5--5--5-5--5--5--5--3-3---3--3---3-3-3---3--3---3---|
A|-------------------------------------------------------------|
E|-------------------------------------------------------------|

Riff 3

G|--------------2-2--20202--2-2|
D|-2--2---2--2-----------------|
A|-----------------------------|
E|-----------------------------|



Riff 4

G|-0--0-2--0------0-0--5-5-5--4-5--5-5-|
D|------------3--3---------------------|
A|-------------------------------------|
E|-------------------------------------|

Riff 5

G|-0---0--0---0--------------|
D|--------------3---3--3---3-|
A|---------------------------|
E|---------------------------|



Introdução: Riff 1



(Riff 2)

Dizem que guardam um bom lugar pra mim no céu

Logo que eu vou pro beleléu

A minha vida só eu sei como guiar

Pois ninguém vai me ouvir se eu chorar



(Riff 3)

Mas enquanto o sol puder arder

Não vou querer meus olhos escurecer



(Riff 4)

Pois se eles querem meu sangue

Verão o meu sangue só no fim

E se eles querem meu corpo

Só se eu tiver morto, só assim



(Riff 2)

Well the opressors are trying to keep me down

Trying to make me fell like a clown

And they think that they have the battle won

I say forguive then Lord 

They not what they've done



(Riff 3)

Cause as sure as the sun will shine

I'm gonna get my share now, what's mine



(Riff 4)

And then the harder they come     

The harder they fall one and all

The harder they come                   

The harder they fall one and all



Solo: Riff 5 



(Riff 2)

And I'll keep on fighting for the things I want

Cause I know that when you're dead you can't

But I'd rather be a free man in my grave

Than living as a puppet or a slave     



(Riff 3)

So as sure as the sun will shine 

I'm gonna get my share now wat's mine



(Riff 4)

And then the harder they come

The harder they fall one and all

The harder they come

The harder they fall one and all


_______________________________________________________
Contribuição: Cristina(crisgs@msn.com)
5.958 exibições

Comentários 0

Composição: Jimmy Cliff / Nando Reis
Esse não é o compositor? Avise-nos.
Consegui tocarAinda não conseguiram tocar essa música. Seja o primeiro!
    Não consegui tocar
    publicidade
    fechar