Intuition

TNT

 TNT
Tom: C
		
Okey, I really liked this song! And there were no tabs for it, so
I decided myself to tab it!


Tuning : A half step lower


Riff 1                    Riff 2
                          (Palm mute on 6th string)

|-----------------------|----------|
|-----------------------|-----8----|
|-----------------------|-----9----|
|-----------------------|-----9----|
|-10-\-5/7-\-2/5--------|-----7----|
|-----------------------|-0-0------|



Intro (Mute on E and A string):

|--------------------------------------------------------------------------|
|--------------------------------------------------------------------------|
|-12-------12---12-11----12---11----12---11----12-----12---12-11---12---11-|
|-12-------12---12-12----12---12----12---12----12-----12---12-12---12---12-|
|----10-10------------10---------10---------10-----------------------------|
|-------------------------------------------------0-0------------0---------|



|----------------------------------------------------------------------------|
|----------------------------------------------------------------------------|
|---12---11----12-----12---12-11---12---11---12---11---11----12----5---5-----|
|---12---12----12-----12---12-12---12---12---12---12---12----12----5---5-----|
|------------------------------------------------------------------3---3-----|
|-0---------8-----8-8------------8---------8---------8-----------------------|


Verse

|---------------------------------------------------------------|
|-5-----------------------------8-------------------------------|
|-4------7--5----7-------5--7-5-7--------7-------5-------7------|
|-2------7--5----7-------5--7-5-5--------7-------5-------7------|
|--------5--3----5-------3--5-3----------5-------3-------5------|
|---------------------------------------------------------------|


Pre chorus

|----------------------------------------------------------------------------|
|-5----------------------------8p7------------5------------------------------|
|-4-------7--7-----5-------7--------7---7-----4--------7--------3--------2---|
|-5-------7--7-----5---------7--------7---7---5--------7--------3--------2---|
|--------------------------pmpm-----pmpmpmpm--------------------1--------0---|
|----------------------------------------------------------------------------|


Chorus - repeat intro

Guitar solo                        (repeat 2 times)

|--------------------------------------------------|
|--------------------------------------------------|
|-12p11-11-11-11h12-12-12-11h12-12-12-11h12-12-12--|
|-------pm-pm-------pm-pm-------pm-pm-------pm-pm--|
|--------------------------------------------------|
|--------------------------------------------------|


                                   (repeat 2 times)

|--------------------------------------------------|
|--------------------------------------------------|
|-16h14-14-14-14h16-16-16-14h16-16-16-14h16-16-16--|
|-------pm-pm-------pm-pm-------pm-pm-------pm-pm--|
|--------------------------------------------------|
|--------------------------------------------------|


|--------------------------------------------------------|
|------------------------8-------------------------------|
|-17---16--12---6----9-------7--------8-------17--16-x-x-|
|--------------------------------------------------------|
|--------------------------------------------------------|
|--------------------------------------------------------|
(Guitar 2 - play this part if you want a harmony as on the album)
|-15-----------------------------------------------------|
|------15--12--------------------------------------------|
|--------------------12--15--11--------------------------|
|--------------14----------------------------------------|
|--------------------------------------------------------|
|--------------------------------------------------------|

|-------------------------15p14-14-14-20p19-19-19----19---------16-17-18c/--|
|-------------17p16-16-16-------pm-pm-------pm-pm---------------------------|
|-17p16-16-16-------pm-pm---------------------------------------------------|
|-------pm-pm---------------------------------------------------------------|
|---------------------------------------------------------------------------|
|---------------------------------------------------------------------------|
|
|----------------------------------------------------24---------21-22-23c/--|
|---------------------------------------------------------------------------|
|---------------------------------------------------------------------------|
|---------------------------------------------------------------------------|
|---------------------------------------------------------------------------|
|---------------------------------------------------------------------------|

  |-> with h & p                                                         
764 exibições

Comentários 0

Consegui tocarAinda não conseguiram tocar essa música. Seja o primeiro!
    Não consegui tocar
    Exibir acordes »
    publicidade
    fechar