TNT

Não Sei

130.953 exibições
Tom: D
INTRO.: D D4 A G G A 

(D D4 A G G A)
não sei se eu to certo ou se eu to errado
mas faço tudo o que eu digo e digo tudo que eu faço
neste mundo eu sou eu, você é você
faça tudo o que quiser porque também vou fazer

(PONTE)
(A G)                 
não sei mais o que faço
(PONTE) 
(A G)                
eu já fumei dez maços
(PONTE)
(A G)                
mandei tudo pro espaço
(PONTE)
(A G)                 (D D4 A G G A)
agora eu só quero paz

(D D4 A G G A)
Cansei dessa gente desse papo furado
eu viajei por todo o mundo pra ficar descansado
mas nada feito, o meu problema foi sempre você
diga tudo o que quiser pois eu preciso saber
        
(PONTR)    
(A G)  
não sei mais o que faço
(PONTE)
(A G)                
eu já fumei dez maços
(PONTE)
(A G)                
mandei tudo pro espaço
(PONTE)

(Solo)

(D D4 A G G A)
não sei se eu tô certo ou se eu to errado
mas faço tudo o que eu digo e digo tudo que eu faço
neste mundo eu sou eu, você é você
faça tudo o que quiser porque tambem vou fazer

(PONTE)
(A G)
não sei mais o que faço
(PONTE)
(A G)
eu já fumei dez maços
(PONTE)
(A G)
mandei tudo pro espaço
(PONTE)
(A G)
agora eu só quero paz

(D D4 A G G A)

PONTE

---------------------------       -------------
---------------------------       -------------
---------------------------   OU  -------------        obs: solte o dois para tocar o zero 
---------------------------       ---0---------             nessa parte     ---0-    
-------5-------------------       -2---2h0-----                             -2---   
--5/7-----7----3-----------       ---------3---              


As notas são repetidas várias vezes...

SOLO 

|-------------------------------------------------------------------
|-------------------------------------------------------------------
|-------------------------------------------7-7^--------------------
|--------7-9-9^-7-x-7^-7h9p7-----------7-9-7-----9\-7h9p7-----------
|-----5/9------------------------5-/7h9-------------------9-7h9p7---
|----------------------------5h7---------------------------------10-



|------------------------------------
|------------------------------------
|------------------------------------
|----------7-9-7-9-9^--7----------7--
|----5-/7h9--------------7h9-7-7h9---
|-5h7--------------------------------



|----------------------------------------------
|------------------10--10--10------------------
|----------------9^--9^--9^--9^-7-9-7--9^-7-7--
|--------7-9-7-9-------------------------------
|---5h7/9--------------------------------------
|-7--------------------------------------------



|----7------------------------------------------------------------
|-----10p7--7-----------------------------------------------------
|-9^------9^-9^--7h9---------------------------------7-9-9^-7-7-9-
|--------------9-----9-----------------------7-9-9-7---------9----
|-----------------------5h7-x-5h7-5---5---7/9---------------------
|---------------------------------------7-------------------------



|-----------------------------------------------------------------
|-----10-12-12--13^-12--------------------------------------------
|-9/11-------------------9h11-9-7-7-------------------------------
|-----------------------------------------------------------------
|-----------------------------------------------------------------
|-----------------------------------------------------------------

Comentários 1

  • paulolaux paulolaux: Postado em 24/05/2012 18:58

    muito tri (:
    TNT é fodah

conseguiu tocar?

  • Joana
  • Bruna
  • tulipasls
  • wesleyroses

covers

Grave um vídeo tocando Não Sei e mande pra gente!

Ex.: http://www.youtube.com/watch?v=0IvSvIwGdwk
ver covers de outras músicas »
0:00 / 0:00

Capítulos

    3 versões de violãodificuldadeexibiçõescontribuição e correção
    3 versões de guitarradificuldadeexibiçõescontribuição e correção
    3 versões de cavacodificuldadeexibiçõescontribuição e correção
    3 versões de tecladodificuldadeexibiçõescontribuição e correção
    1 versão de baixoexibiçõescontribuição e correção
    1 versão de bateriaexibiçõescontribuição e correção
    1 versão de Guitar Proformatodownloadscontribuição
    play/pausefechar subir/descer velocidade
    6ª corda E5ª corda A4ª corda D3ª corda G2ª corda B1ª corda E
      Exibir acordes
      Feedback
      publicidad
      fechar
      ok