Desafinado

Tom Jobim

 Tom Jobim
Tom: C#
		
Intro:
      F7M/A            Ab°(13-)      Gm7(11)   Gb7(11+)
     Quando eu vou cantar, você não deixa
 F7M/A            Abº(13-)     Gm7(11)   Gb7(11+)
     E sempre vem    a mesma queixa
 Eb7M/G                               A°(9-)    Gm7
     Diz que eu desafino, que eu não sei cantar
      Dm7           Bb7(5-/13-)
     Você é tão bonita
      A7M        Ab7(13-)      G7(13)       Gb7(11+)
     Mas tua beleza também pode se enganar

Parte 1:
F6(9)                         G7(11+)
   Se você disser que eu desafino amor,
Gm7                   C7           Am7(5-)   D7(13-)
   Saiba que isso em mim provoca imensa dor
Gm7(9)         A7(9-)      D7M              D7(9-)
   Só privilegiados tem ouvido igual ao seu
G7(9)          G7(9-)      Gm7(5-)     Gb7M(11+)
   Eu possuo apenas o que Deus me deu

Parte 2:
 F7M                    G7(11+)
   Se você insiste em classificar,
Gm7             C7            Am7(5-)  D7(13-)
   Meu comportamento de anti-musical
Gm7(9)       A7(9-)           Dm7(11)      E7(9+)
   Eu, mesmo mentindo devo argumentar,
A7M   Ab7(13-)            G7(13)      Gb7(11+)
   Que isto é bossa nova, Que isto é muito natural

Parte 3:
     A7M           A#°          Bm7(11)         E7(9-)
   O que você não sabe, nem sequer pressente,
A7M                Am7(9)       Bm7(5-)         Bb7(9)
   É que os desafinados também tem um coração
C7M              C#°         Dm7(11)    G7(13-)
   Fotografei você na minha Rolleiflex,
        Gm7           D7(9-)  D7(13-)        G7(13) G7(13-) C4(7/9) C7(9-/11+)
   Revelou-se a sua enorme ingratidão

Final:
F7M                       G7(11+)          Gm7
   Só não poderá falar assim do meu amor,
               C7         Am7(5-)           D(5+)
   Este é o maior que você pode encontrar, viu
Bb6(9)             Bbm7M       Am7         Abº7M
   Você com a sua música esqueceu o principal,
           G7
   Que no peito dos desafinados
               Gb7M(11+)
   No fundo do peito bate calado,
                           Gm7   C4(7/9)  C7(9-)  Gm7(11) Gb7(11+)  F7M
   Que no peito dos desafinados também   bate um co______ra________ção

( F7M(6/9/11+) )

Intro:


   F7M/A     Abº(13-)  Gm7(11)   Gb7(11+)
E|-0-1-0-1-0---1-0--------------------------
B|-----------------3-1-----------1----------
G|-5---------4-------------3-----3----------
D|-3---------3-----------3---3---2----------
A|-0-----------------------------1----------
E|-----------4---------3---------2---2-3-4--



   F7M/A     Abº(13-)  Gm7(11)   Gb7(11+)
E|-0-1-0-1-0---1-0--------------------------
B|-----------------3-1-----------1----------
G|-5---------4-------------3-----3----------
D|-3---------3-----------3---3---2----------
A|-0-----------------------------1----------
E|-----------4---------3---------2---0-1-2--



   Eb7M/G          Aº(9-)  Gm7
E|-------------2-5-8--6--6------------------
B|-3-4-3-4-3-4-----7--7------7-6-5-3-4------
G|-3---------------8--8----3----------------
D|-1---------------8-------3----------------
A|------------------------------------------
E|-3-----------------------3----------------



   Dm7           Bb7(11+/13-)
E|---5-3-5-3-5-6-6--------------------------
B|-6-6-5-6-5-6-7-7--------------------------
G|-5-------------7--------------------------
D|-0-------------6--------------------------
A|---------------7--------------------------
E|---------------6--------------------------



   A7M       Ab7(13-)   G7(13)    Gb7(11+)
E|------------------------------0-----------
B|-5-7-5-7-5---5------3-5-6-5-6---1---------
G|-6---------5------5---4---------3---------
D|-6---------4----------3---------2---------
A|-0----------------------------------------
E|-----------4----------3---------2---------


1ª Parte:

   F6(9)                          G7(11+)
E|-8-------0-1-0-----------------1----------
B|-8---1-3------------3-2-----3------2-2----
G|-7-------------------------------4--------
D|-7-------------------------------3--------
A|-8----------------------------------------
E|---------------------------------3--------

 1 . . . 2 . . . 1 . . . 2 . . . 1 . . .


                         Gm7
E|-----------------------------------3------
B|-----2---------2-------3---3---5-6---6----
G|-----4-------4-----4---3---------3--------
D|---3-------3-------3---3---------3--------
A|------------------------------------------
E|-3-------3-------3-----3---------3--------

 2 . . . 1 . . . 2 . . . 1 . . . 2 . . .


   C7              Am7(5-)           D7(13-)
E|---------------8-------------8-7-6--------
B|-----5-3---5-----8---------------------7--
G|-3-----------------8---8---8-----------5--
D|-5---------------7---------------------0--
A|-3-------3-------0-------0----------------
E|------------------------------------------

 1 . . . 2 . . . 1 . . . 2 . . . 1 . . .


           Gm7(9)          A7(9-)
E|---5---------8-6-5-----6-----5---------0--
B|-------------------8-----5-----------4----
G|-------7---7-------------6----------------
D|---------5-------5-------5----------------
A|-------------------------0-------0--------
E|------------------------------------------

 2 . . . 1 . . . 2 . . . 1 . . . 2 . . .


   D7M             D7(9-)        G7(9)
E|-2---5-2---------------------------5---3--
B|-2---------2---4-----4--------------------
G|-2-------------------5-----5---4----------
D|-0-------0---------4-------4---3----------
A|-----------------5-------5----------------
E|-------------------------------3----------

 1 . . . 2 . . . 1 . . . 2 . . . 1 . . .


           G7(9-)          Gm7(5-)
E|-------4---3-----------1---0---------1----
B|-6-3-----------6---3-----------2-----2----
G|---------4-------------------------3---0--
D|---------3--------------------------------
A|------------------------------------------
E|-3-------3-------3-------3-------3--------

 2 . . . 1 . . . 2 . . . 1 . . . 2 . . .


        Gb7M(11+)
E|-1---1------------------------------------
B|-1---1------------------------------------
G|-3---3-----3---2--------------------------
D|-3---3-----3---2--------------------------
A|-1---1------------------------------------
E|-2---2-----2---1--------------------------

 1 . . . 2 . . .

2ª Parte:

                                   G7(11+)
E|---------0-1-0-----------------1----------
B|-----1-3------------3-2-----3------2-2----
G|---------------------------------4--------
D|---------------------------------3--------
A|------------------------------------------
E|---------1-------1-------1-------3--------

 1 . . . 2 . . . 1 . . . 2 . . . 1 . . .


                         Gm7
E|-----------------------------------3------
B|-----2---------2-------3---3---5-6---6----
G|-----4-------4-----4---3---------3--------
D|---3-------3-------3---3---------3--------
A|------------------------------------------
E|-3-------3-------3-----3---------3--------

 2 . . . 1 . . . 2 . . . 1 . . . 2 . . .


   C7               Am7(5-)           D7(13-)
E|---------------10----------------6---6----
B|-----5-3---5------8----------8---7---7----
G|-3-------------------8-8-----8---5---5----
D|-5----------------10-------10----0--------
A|-3-------3--------0------0----------------
E|------------------------------------------

 1 . . . 2 . . . 1 . . . 2 . . . 1 . . .


           Gm               A7(9-)
E|-x-6-------8---6-5-----6-----5------------
B|-x-7---------------8-----5---------8\--6--
G|-x-5---7-----------------6----------------
D|-x-0-----5-------5-------5----------------
A|-------------------------0-------0--------
E|------------------------------------------

 2 . . . 1 . . . 2 . . . 1 . . . 2 . . .


   Dm7              E7(9+)          A7M
E|-3-----3-----------0-------0--------------
B|---6---------6---8-----8-------5-----5-7--
G|-5-----------5---7-----7-------6----------
D|-3---------3---3-6-----6-------6---6------
A|-5-------5-----------------------0--------
E|-----------------0-------0----------------

 1 . . . 2 . . . 1 . . . 2 . . . 1 . . .


           Ab7(13-)         G7(13)
E|---------------------------------------0--
B|-5-7---5-----5---------3-5-----6-5-6------
G|---------5---------5-----4----------------
D|---------4---------------3----------------
A|-0----------------------------------------
E|---------4-------4-------3-------3--------

 2 . . . 1 . . . 2 . . . 1 . . . 2 . . .


   Gb7(11+)
E|------------------------------------------
B|-----1------------------------------------
G|-----4------------------------------------
D|-----2------------------------------------
A|------------------------------------------
E|-2----------------------------------------

 1 . . . 2 . . . 1 . . . 2 . . . 1 . . .

3ª Parte:

           A7M              A#°
E|---------0---2-0---2---0---------------0--
B|-----2---2-------------------3-2---3------
G|---------1---------------0----------------
D|---------2---------------2----------------
A|---------0-------0-------1-------1--------
E|------------------------------------------

 2 . . . 1 . . . 2 . . . 1 . . . 2 . . .


   Bm7(11)          E7(9-)          A7M
E|-------0---------0-----0------------------
B|---0---------0---3-----3-------------5-7--
G|-2-----------2-----1-------1-------6------
D|-0---------0---0---3-------3---2----------
A|-2-------2-----------------------0--------
E|-----------------0-------0----------------

 1 . . . 2 . . . 1 . . . 2 . . . 1 . . .


          Am7(9)           Bm7(5-)
E|-4-5---7---5-----------0---1---0-1---0----
B|-------5-----------------3----------------
G|-------5-------5---7-----2----------------
D|-------5-----------------3----------------
A|-0-------0-------0-------2-------2--------
E|------------------------------------------

 2 . . . 1 . . . 2 . . . 1 . . . 2 . . .


   Bb7(9)          C7M             C#º
E|-------------------0-3-5-3-5---3----------
B|-------3---------0---------------5---6-5--
G|-------5---------0---------------3--------
D|---6-------6-----2------------------------
A|-----------------3-------3-------4--------
E|-6----------------------------------------

 1 . . . 2 . . . 1 . . . 2 . . . 1 . . .


           Dm7(11)           G7(13-)
E|-------3-------3-------------------3---5--
B|---6-------3---------3---4---4------------
G|---------5-----------5---4---4------------
D|---------3---------3---3-3---3------------
A|-4-------5-------5------------------------
E|-------------------------3---3---3--------

 2 . . . 1 . . . 2 . . . 1 . . . 2 . . .


   Gm7              D7(9-) D7(13-) G7(13)
E|-6---5---6-5---8-----8---5-6---3----------
B|-3-------------7-----7---7-7-------5---5--
G|-3-------------8-----8---5-5-------4---4--
D|-----------------0-------0---------3---3--
A|------------------------------------------
E|-3-------3-----------------------3--------

 1 . . . 2 . . . 1 . . . 2 . . . 1 . . .


   G7(13-) C4(7/9) C7(9-/11+)
E|---------3-3---2---2----------------------
B|-4---4---3-3---2---2----------------------
G|-4---4---3-3---3---3----------------------
D|-3---3---3-3---2---2----------------------
A|---------3-----3---3----------------------
E|-3----------------------------------------

 2 . . . 1 . . . 2 . . . 1 . . . 2 . . .

Final:

   F7M                         G7(11+)
E|-----------0-1-0-----------------1--------
-B|1-----1-3------------3-2-----3------2---2
G|-2---------------------------------4------
D|-2---------------------------------3------
A|------------------------------------------
E|-1---------1-------1-------1-------3------

   1 . . . 2 . . . 1 . . . 2 . . . 1 . . .


                         Gm7
E|-----------------------------------3------
B|---2---2-------2---2---3---3---5-6---6----
G|-------------4-----4---3---------3--------
D|-----------3-------3---3---------3--------
A|------------------------------------------
E|-3-------3-------3-----3---------3--------

 2 . . . 1 . . . 2 . . . 1 . . . 2 . . .


   C7       Am7(5-)      D(5+)
E|------------------10---9-8-7---6-----10---
B|---5---3---5-------------------------11---
G|-3-----------------7---8-9-10--11----11---
D|-5-----------------------------------0----
A|-3-------3-------0------------------------
E|------------------------------------------

 1 . . . 2 . . . 1 . . . 2 . . . 1 . . .


  Ab7(5-)   Bb6(9)   Bbm7M
E|-----------5-8-6-5-----6---------------5--
B|-------------------8---6---10--8---6---5--
G|-5-------5-------------6---6---6---6---5--
D|-4-------5-----------------7---7---7------
A|-5-------5--------------------------------
E|-4-------6-------6-------6-------6--------

 2 . . . 1 . . . 2 . . . 1 . . . 2 . . .


   Am7           Abº7M           G7
E|---------------3--------------------------
B|-----8---6-5---3--------------------------
G|-----5---5-5---4-----4--------------------
D|-----5---5-5---------3-------0-2-3-3-3-3--
A|-0-------0-----------5-----------2--------
E|-----------------4---------------3--------

 1 . . . 2 . . . 1 . . . 2 . . . 1 . . .


                           Gb7M(11+)
E|------------------------------------------
B|---------------------------------------1--
G|---0-------------0------------------------
D|-3-----3---3---3---3-2-3-----3---3-3-3----
A|-------------------------1----------------
E|-3-------3-------3-------2-------2--------

 2 . . . 1 . . . 2 . . . 1 . . . 2 . . .


                   G7           Gm7
E|---------------------------3--------------
B|-------------3-5-6-6-6-6-6-----6-----5----
G|-----3-----------4-------------3-----3----
D|-3---------------5-------------3-----3----
A|-1----------------------------------------
E|-2-------2-------3-------3-------3--------

 1 . . . 2 . . . 1 . . . 2 . . . 1 . . .


   C4(7/9)   C7(9-)  Gm7(11) Gb7(11+)
E|-----------------3-------1-------1---0----
B|-3-------5-------2-------1-------1--------
G|-3-------3-------3-------3-------3--------
D|-3-------3-------2-------3-------2--------
A|-3---------------3-------1-------1--------
E|-------------------------3-------2--------

 2   .   .   .   1   .   .   .   2   .


   F7M
E|-1----------------------------------------
B|-1---------------------------------1---1--
G|-2---------0---0---2-2---2-3---3---3---3--
D|-2-------3-3---3---3-3---3-3---3---3---3--
A|-3----------------------------------------
E|-1---------1---1---1-1---1-1---1---1---1--

   1 . . . 2 . . . 1 . . . 2 . . . 1 . . .


                                F7M(6/9/11+)
E|--------------10-8-----------0------------
B|-3-----1---------------------0------------
G|-3-----2------7--5-----------0------------
D|-3-----2---------------------0------------
A|-----------------------------0------------
E|-1-----1---------------------1------------

 2 . . . 1 . . . 2 . . . 1 . . . 2 . . .
Texto Colunas
Alterar tom ½ tom ½ tom
afinação acordes na letra esconder tabs mais »

Comentários 37

  • joaovictor.peroni joaovictor.peroni: Postado em 22/09/2014 10:41

    consegui! obrigado ao mestre Philipe Lobo! mais uma do grande Tom para o repertório! vlw!

  • leolino1605 leolino1605: Postado em 27/01/2014 21:49

    Philipe Lobo, impressionando mais uma vez! Parabéns pelas vídeo aulas!

  • humbertoguitar humbertoguitar: Postado em 05/04/2013 01:39

    muito bom mesmo. só falto desafinar.

  • Wellerson Wellerson: Postado em 26/03/2013 11:00

    muito bom. parabens

  • jozequinha jozequinha: Postado em 08/02/2013 17:32

    Prof. Philipe sempre quis solar esta musica maravilhosa do nosso Tom Jobim e com a sua fantastica video aula eu vou conseguir. Um grande abr

  • a.c.s.a a.c.s.a: Postado em 17/01/2013 04:04

    A mais fantasticas das interpretações feitas aqui por você Philipe no que se diz de bossa nova e samba! Esplendida! muito obg!

  • chitarra chitarra: Postado em 21/10/2012 12:29

    "A mais bonita entre todas....Linda,linda,linda,linda,linda...."

  • jeazin jeazin: Postado em 23/08/2012 15:22

    Phlipe o mestre ;)

  • pablitomekelito pablitomekelito: Postado em 04/06/2012 23:32

    Philippe, tu é foda. Sem mais.

  • dan86 dan86: Postado em 28/05/2012 23:42

    sensacional, Philippe Lobo!
    Será que vc poderia fazer um arranjo pra Arrumação, de Elomar?
    Muito obrigado.

Exibindo 10 de 37 comentários Mostrar mais ver todos »
Composição: Tom Jobim / Newton Mendonça
Esse não é o compositor? Avise-nos.
Contribuição: philippelobo Correções: philippelobo »
  1. Até Você Voltar - Henrique e Juliano Manteve-se 88.221 exibições
  2. Domingo de Manhã - Marcos e Belutti Manteve-se 78.414 exibições
  3. Cuida Bem Dela - Henrique e Juliano Manteve-se 51.633 exibições
  4. Recaídas - Henrique e Juliano Manteve-se 42.304 exibições
  5. Diz Pra Mim - Banda Malta Manteve-se 40.395 exibições
  6. Raridade - Anderson Freire Manteve-se 39.890 exibições
  7. Pra Você - Onze:20 Manteve-se 31.782 exibições
  8. Só Os Loucos Sabem - Charlie Brown Jr. Manteve-se 31.228 exibições
  9. Tudo Que Você Quiser - Luan Santana Manteve-se 30.990 exibições
  10. 11 Vidas - Lucas Lucco Manteve-se 29.535 exibições
  1. Henrique e Juliano- Manteve-se 273.256 exibições
  2. Jorge e Mateus- Manteve-se 223.372 exibições
  3. Legião Urbana- Manteve-se 205.070 exibições
  4. Charlie Brown Jr.- Manteve-se 148.581 exibições
  5. Luan Santana- Manteve-se 121.162 exibições
  6. Fernandinho- Manteve-se 118.717 exibições
  7. Bruno e Marrone- Manteve-se 114.184 exibições
  8. Marcos e Belutti- Manteve-se 96.389 exibições
  9. Thalles Roberto- Manteve-se 91.879 exibições
  10. The Beatles- Manteve-se 91.576 exibições
Exibir acordes »

Cifras e tabs

Fórum Cifra Club

Aprenda

Cifra Club News

Mais Serviços Cifra Club ID

Studio Sol

©1996 - 2014 Cifra Club · o primeiro, maior e mais acessado do Brasil · 341 mil músicas · 6.3 milhões pessoas cadastradas

publicidade
fechar