Wave

Tom Jobim

 Tom Jobim
Tom: A
		
(intro)


E|-10---7--5-----1-1------7--5--1--1-1----------|
B|-------------------------3------------------3--3----|
G|------------------------------------------------------|
D|------------------------------------------------------|
A|-------------------------------------------------------|
E|--------------------------------------------------------|


(1º parte - 2x)

E|----------------------------------------------------------------------------------------------------------------------------------------------------------------------|
B|-------------------------7-8-7--8/10--10-10-12-10--8-8--7-8-7-8--10-7---7-10-9-8-5/7-----------------------------10-8-------------------------|
G|------7-6---------6-7-----------------------------------------------------------------------------------7---7---7--9-10-7-7------------7--10--7-----------|
D|----5-----7--5-7------------------------------------------------------------------------------------------9---9---------------------------------------------------|
A|-----------------------------------------------------------------------------------------------------------------------------------------------------------------------|
E|-----------------------------------------------------------------------------------------------------------------------------------------------------------------------|


(parte 2)

E|----------------------------------------------------------------------------------------------------------------------|
B|----------------------------------------------------------------------------------------------------------------------|
G|--------7--5-----------------------7--5---5-----5--3-----------------------5--3---3-----7-6--9--------------|
D|----------------8--7--5---5--7--------------------------6--5--3---3--5----------------------------7----------|
A|----------------------------------------------------------------------------------------------------------------------|
E|----------------------------------------------------------------------------------------------------------------------|


( obs: a 2º parte é essa> "da primeira vez era cidade...",  e vai até  "...agora já sei" )

(parte 3)

E|---------------------------------------------------------------------------------------------------------------------------------------------------------------------|
B|---------------------7-8-7--8/10--10-10-12-10--8-8--7-8-7-8--10-7---7-10-9-8-5/7-----------------------------10-8---------------------------|
G|---------------6-7-----------------------------------------------------------------------------------7---7---7--9-10-7-7------------7--10--7--------------|
D|---------5-7-------------------------------------------------------------------------------------------9---9----------------------------------------------------|
A|--------------------------------------------------------------------------------------------------------------------------------------------------------------------|
E|--------------------------------------------------------------------------------------------------------------------------------------------------------------------|


(obs: após tocar a 3º parte volta-se para a introdução e depois o "Final")

(final)

E|------------------------------------------|
B|------------------------------------------|
G|----------7---5-------------------------|
D|-----5-------------7--------------------|    (se toca mais lento)
A|------------------------------------------|
E|------------------------------------------|

Comentários 0

Composição: Tom Jobim
Esse não é o compositor? Avise-nos.
Contribuição: Rafael Gouveia
Exibir acordes »
publicidade
fechar