Wave

Tom Jobim

 Tom Jobim
Tom: C
		

E|----------------------3p2-3/5----5-5-5h7-5-3-3-2-2h3-------|
B|-0-3-2------------2-5--------------------------------------|
G|-------2--------3------------------------------------------|
D|----------4-5----------------------------------------------|
A|-----------------------------------------------------------|
E|-----------------------------------------------------------|



E|-2-2h3-5-2---2-5-4-3-2-2----------------------6-3----------|
B|--------------------------3-0-3---0-3-5-6-3-3-----3-5-3----|
G|-----------------------------------------------------------|
D|-----------------------------------------------------------|
A|-----------------------------------------------------------|
E|-----------------------------------------------------------|



E|----------------------------------------------------------0----|
B|-3--1---------------1h3-1-1---1-------------1-------0-3-2------|
G|-------3-2-0--2-3---------------3-1-0---0-1----3------------2--|
D|--------------------------------------3------------------------|
A|---------------------------------------------------------------|
E|---------------------------------------------------------------|

Comentários 1

  • nefisk8 nefisk8: Postado em 29/03/2013 10:36

    Na segunda tablatura bem no finalzinho fica assim, 5--3 na 1ª corda E.. 3-6-3 na corda B...

Composição: Tom Jobim
Esse não é o compositor? Avise-nos.
Contribuição: luan Correções: Tiaguinho e mais 1 »
Exibir acordes »
publicidade
fechar