Marca da Vitória

Tony Allysson

 Tony Allysson
Tom: C
		
Intro 3x: Am  F C G

     Am7    F            C                       G
Eu verei      os milagres vão surgir
     Am7    F             C                      G
Eu verei      os milagres vão surgir
    Am7         F     C  G       Am             F   C G
Diante de mim,             diante de mim
       Am7        F                C                   G
Profetizarei      e as muralhas vão cair
       Am7        F                C                   G
Profetizarei      e as muralhas vão cair
Am7         F     C  G       Am             F   C G
Diante de mim,             diante de mim

F9                                                  C                             G   G4
       Tudo que ele disse sobre mim vai se  cumprir

No nome de jesus

F9                                                     C                           G   G4
       Tudo que ele disse sobre mim vai se  cumprir
F9                                                    Am                         G   G4
      Tudo que ele disse sobre mim vai se  cumprir

Pois tenho a marca da vitória

Am          f                 C                G
Marca da vitória, marca da vitória (4x)

profetizarei....

Solo:

              F              G                 E/G#                    Am                                     F
|----------------------------------------------------------------------------------------------------------------------|
|-----------------------------------------------------5-----7--7----------------------------------------10--10----|
|-9------------------------------------------------------4------------------------------------------------------------|
|-----7--10--10--10--7--5-----------------7-----6---------------------------5--5-------5--7--7--5--7---- -|
|--------------------------7--5--3--5--7-----7-----7---------------0---------------7------------------5---------|
|----------------------------------------------------------------------------------------------------------------------|



                   Dm                G
|--8--8---------------------------------------------------------------|
|-------10--8---------7--7------------------------------------------|
|--------------7--5----------5---7---9---10---12---14---12----|
|-----------------------------------------------------------------------|
|----------------------------3---5---7----8---10---12---10------|
|-----------------------------------------------------------------------|


 F9                                                   C                           G   G4
      Tudo que ele disse sobre mim vai se  cumprir
 F9                                                   C                           G   G4
      Tudo que ele disse sobre mim vai se  cumprir
 F9                                                   C                           G  G4
      Tudo que ele disse sobre mim vai se  cumprir
 F9                                                   C                           G  G4
      Tudo que ele disse sobre mim vai se  cumprir

Eu creio...

  F9                                                   C                           G  G4
      Tudo que ele disse sobre mim vai se  cumprir
 F9                                                   C                           G  G4
      Tudo que ele disse sobre mim vai se  cumprir

Pois tenho a marca da vitória

Am                          C                    G
Marca da vitória, marca da vitória (4x)
67.882 exibições

Comentários 8

  • Canal Canal: Postado em 27/07/2014 22:16

    alguem me passa o solo correto ai pf

  • Glória Glória: Postado em 15/07/2014 00:20

    Qual é o ritmo?

  • ryanyasmin.coradi ryanyasmin.coradi: Postado em 29/01/2014 13:28

    Pois tenho a marca da vitoria

  • marcos_henrick marcos_henrick: Postado em 31/10/2013 23:19

    Solo errado vou consertar kk'

  • Berg Berg: Postado em 09/05/2013 12:59

    Solo tá errado!!!

  • binhobass binhobass: Postado em 18/01/2013 14:50

    no refrao depois do G tem a passagem G4-G ....

  • rafinhagjng rafinhagjng: Postado em 19/12/2012 22:17

    o Solo tá meio confuso

  • aderbaloliveira aderbaloliveira: Postado em 30/06/2012 00:13

    tem que fazer uma vídeo aula :)

Composição: Sabe quem é o compositor? Envie pra gente. Contribuição: fael Correções: Melissa , Eduardo e mais 6 »
Exibir acordes »
publicidade
fechar