Bendito Eu Serei

Toque No Altar

 Toque No Altar Compositor: Toque No Altar
Tom: A#
		
Intro 2x: Gm7  Eb6(9)  F9

  Gm7   Eb9     F9
Quero ouvir tua voz
      Gm7      Eb9    F9
As sandálias eu já tirei
       Gm7         Eb6(9)      F
A minh'alma anseia por tua presença
           Gm7          Eb6(9)    F
Mas que a terra seca anseia pela chuva
      Gm7	 Eb9    F9
Guardarei teus mandamentos
         Gm7          Eb9   F9
Pois pra mim são mais preciosos
       Gm7         Eb           F
Do que ouro, prata ou qualquer riqueza
          Cm7           Eb            F7
Pois tuas bençãos virão e me alcançarão
 Gm7    Eb9   F9
Bendito eu serei
           Gm7         Eb    F
Os meus celeiros transbordarão
         Dm7     Eb9
Todos verão que sou
   Cm7(9)               F7(9)
Chamado pelo nome do Senhor
Gm7          Eb9   F9  Eb/F
E os céus se abrirão
      Gm7        Eb6(9)  F
O bom tesouro do meu Senhor
         Dm7    Eb9
Tudo vai prosperar
     F6    F   Fsus4(7)
Onde eu tocar as minhas mãos

( Gm7 Eb6(9) F9 )

( Gm Eb F )  (3x)

Solo: Gm  Eb  Eb/G  F (2x) Bb  Eb  F  Bb   Eb  F

(Refrão)

E|--------------------------------------|
B|--8-10-10b-------6/8--------~~--------|
G|-----------7-8---------~--------------|
D|--------------------------------------|
A|--------------------------------------|
E|--------------------------------------|



E|------------------8b-8-6-8------------|
B|--8-10-10b----------------------------|
G|-7-7--7------7-8----------------------|
D|--------------------------------------|
A|--------------------------------------|
E|--------------------------------------|



E|--------10-13-15--15-13-11-10---13-10-------|
B|-11-13-------------------------13-----------|
G|--------------------------------------------|
D|--------------------------------------------|
A|--------------------------------------------|
E|--------------------------------------------|



E|-------------19b-20-18-17-15----------------|
B|-13-11-10-----------------------------------|
G|----------12--------------------------------|
D|--------------------------------------------|
A|--------------------------------------------|
E|--------------------------------------------|

Comentários 2

  • Drially Drially: Postado em 02/10/2013 19:20

    Lindíssima mísica! a letra é perfeita, é o tipo dé música q precisamos ouvir nos momentos de fraquesa!

  • Paixao Paixao: Postado em 20/07/2011 16:48

    cara...muito linda esse louvor

Composição: Davi Sacer, Verônica Sacer e Ronald Fonseca
Esse não é o compositor? Avise-nos.
Contribuição: ThiagoBT Correções: tecladista , john e mais 2 »
Exibir acordes »
publicidade
fechar