Deus De Promessas

Toque No Altar

 Toque No Altar
Tom: D
		

E|--------------------------------------------------------------10-12/13------------------------
B|-10--8----------------------------------------------------------------------------------------
G|---------10/12-------9-10/12--12-12-12---10-9-------------------------------------------------
D|------------------12-----------------------------------10-------------------------------------
A|----------------------------------------------------------------------------------------------
E|----------------------------------------------------------------------------------------------



E|----------------------------------------------------------------------------------------------
B|-10-8-------------------------------------------13-12-10--------------------------------------
G|--------10/12-------9-10/12--12-12-12---------------------------------------------------------
D|------------------12--------------------------------------------------------------------------
A|----------------------------------------------------------------------------------------------
E|----------------------------------------------------------------------------------------------



E|----------------12-------------------------------13-12----------------------------------------
B|--10--12--13------10-10--/12--12-13--15------------15----13-12-13-----------------------------
G|----------------------------------------------------------------------------------------------
D|----------------------------------------------------------------------------------------------
A|----------------------------------------------------------------------------------------------
E|----------------------------------------------------------------------------------------------



E|----------------15----------------12-12----------------------15-------13-12-------------------
B|--13-12-13-------13---13--15-----13-12-13------13-----------13/15-----------------
G|----------------------------------------------------------------------------------------------
D|----------------------------------------------------------------------------------------------
A|----------------------------------------------------------------------------------------------
E|----------------------------------------------------------------------------------------------


(refrão)

E|----------------------------------------------------------12-12--13---------------------------
B|----------13-12--13---------13-12-13---10--13-13---------------10-13/15-----------------------
G|--12-12--------------12-12--------------------------------------------------------------------
D|----------------------------------------------------------------------------------------------
A|----------------------------------------------------------------------------------------------
E|----------------------------------------------------------------------------------------------



E|------------------------------------------------12----------------12-12---13------------------
B|-----------13-12-13---------------13---15-------13------13----------------10--13-13/15--------
G|--12-12--------------12--12-12-----------------------12---------------------------------------
D|----------------------------------------------------------------------------------------------
A|----------------------------------------------------------------------------------------------
E|----------------------------------------------------------------------------------------------


(volta no inicio)


E|--------------------------------------------------------------------------12-13-12------------
B|--13-13-13-12----------13-13-13-15-13-12-13--13-13-13-15-15-----------15-13--12-13------------
G|----------------14-12-14----------------------------------------------------------------------
D|----------------------------------------------------------------------------------------------
A|----------------------------------------------------------------------------------------------
E|----------------------------------------------------------------------------------------------



E|------------------------------------------------------------------------------------12-13-12--
B|--13-13-13-12-------------------13-13-13----13-13-12-13--13-13-13--15----------13/15----------
G|---------------------14--12--14---------------------------------------------------------------
D|----------------------------------------------------------------------------------------------
A|----------------------------------------------------------------------------------------------
E|----------------------------------------------------------------------------------------------

Comentários 1

  • Pah_dias Pah_dias: Postado em 29/03/2012 14:42

    Consegui *-*
    no começo pra quem não sabe muito de solo é difícil..mas depois ouvindo a musica junto é facinha
    kkkkk
    Amei

Composição: Davi Sacer / Ronald Fonseca / Ver
Esse não é o compositor? Avise-nos.
Contribuição: joana Correções: Mateus e mais 1 »
Exibir acordes »
publicidade
fechar