L'italliano

Toto Cutugno

Sem foto do Toto Cutugno
Tom: C
		
  Intro:

  E|--7h8--7h8--7--5~-----5-4/8--7--5----------------------------------------| 
  B|------------------6-----------------5---5-4/8--6--5----------6--8--6-5~--| 
  G|-------------------------------------------------------4--5--7-----------| 
  D|-------------------------------------------------------------------------| 
  A|-------------------------------------------------------------------------| 
  E|-------------------------------------------------------------------------| 



  E|--7h8--7h8--7--5~-----5-4/8--7--5----------------------------------------| 
  B|------------------6-----------------5---5-4/8--6--5---5--5---------------| 
  G|-------------------------------------------------------------5--4--2~----| 
  D|-------------------------------------------------------------------------| 
  A|-------------------------------------------------------------------------| 
  E|-------------------------------------------------------------------------| 


Lasciate mi cantare
perché ne sono fiero
sono l'italiano
l'italiano vero

 Am
Buon giorno Italia gli spaghetti al dente
e un partigiano come Presidente
con l'autoradio sempre nella mano destra
                            E
e un canarino sopra la finestra
Buon giorno Italia con i tuoi artisti
con troppa America sui manifesti
con le canzoni con amore
con il cuore                Am
con più donne sempre meno suore

         C
Buon giorno Italia
buon giorno Maria

         Am
con gli occhi pieni di malinconia
            E
buon giorno Dio
                      Am
lo sai che ci sono anch'io

                Dm
Lasciate mi cantare
                  Am
con la chitarra in mano
              E
lasciatemi cantare
                   Am
una canzone piano piano
               Dm
Lasciate mi cantare
                Am
perché ne sono fiero
           E
sono l'italiano
            Am
l'italiano vero

Buon giorno Italia che non si spaventa
e con la crema da barba alla menta
con un vestito gessato sul blu
e la moviola la domenica in TV

Buon giorno Italia col caffe' ristretto
le calze nuove nel primo cassetto
con la bandiera in tintoria
e una 600 giù di carrozzeria

Buon giorno Italia
buon giorno Maria
con gli occhi pieni di malinconia
buon giorno Dio
lo sai che ci sono anch'io

Lasciate mi cantare
con la chitarra in mano
lasciate mi cantare
una canzone piano piano
Lasciate mi cantare
perché ne sono fiero
sono l'italiano
l'italiano vero.

La la la la la la la la...

Lasciate mi cantare
con la chitarra in mano
lasciatemi cantare
una canzone piano piano
Lasciate mi cantare
perché ne sono fiero
sono l'italiano

l'italiano vero.
6.197 exibições

Comentários 0

Composição: Tammy Cochran
Esse não é o compositor? Avise-nos.
Contribuição: koxta 19
Consegui tocarAinda não conseguiram tocar essa música. Seja o primeiro!
    Não consegui tocar
    Exibir acordes »
    publicidade
    fechar