Fast Car Acoustic

Tracy Chapman

 Tracy Chapman
Tom: A
		
Pre verse , and between chorus and verse

----------------------|----------------------|--------------7-------------|
-2h3-2-5-5s10 10-9-9--|-2h3-2-5-5s10 10-9-9--|-2h3-2-5-5s10---10--9-10-9--|
----------------------|----------------------|----------------------------|
-0--------------------|-0--------------------|-0--------------------------|
-------0---9-----7----|-------0---9-----7----|-------0---9--------7-------|
----------------------|----------------------|----------------------------|


Verse (repeat the following until chorus)

----------------------|
-2h3-2-5-5s10 10-9-9--|
----------------------|
-0--------------------|
-------0---9-----7----|
----------------------|


Chorus:

D         A         F#m         E    (said a remember)

D   F#m   E                          (I had a feeling)

D   F#m   E         D      E         (I had a feeling)

cheers!!
rappe
53.284 exibições

Comentários 0

Exibir acordes »
publicidade
fechar