Electrical Storm

U2

 U2
Tom: D
		
Intro: F#m  A  E  B


E|-------------------------
B|-/12-10---5-7--5h7p5h7---
G|-------------------------  (3x)
D|-------------------------
A|-------------------------
E|-------------------------



E|------9------9------------7-----7----------
B|----7------7-----7------7-----7-----7------
G|--9------9-----9------9-----9-----9--------
D|-------------------------------------------
A|-------------------------------------------
E|-------------------------------------------


F#m A           E      B             F#m
    The sea it swells like a sore head
A                   E    B    F#m
and the night it is aching
A          E           B               F#m
Two lovers lie with no sheets on their bed
A                 E       B    F#m
and the day it is breaking

A        E       B           F#m
On rainy days we go swimming out
A        E       B             F#m
on rainy days, swimming in the sound
A        E       B
On rainy days we go swimming out

F#m A            E    B          F#m
    You're in my mind all of the time
A             E         B
I know that's not enough
F#m     A      E
if the sky can crack
              B        F#m
there must be some way back
A       E        B
to love and only love

F#m A   E   B
    Electrical Storm
F#m A   E   B
    Electrical Storm
F#m A   E   B         F#m A E B
    Electrical Storm
           F#m A E B
Baby don't cry

F#m A           E      B             F#m
    Car alarm won't let you back to sleep
A           E      B             F#m
you're kept awake dreaming some else's dream
A           E      B             F#m
coffee is cold, but it will get you through
A           E      B             F#m
compromise, that's nothing new to you
A           E      B             F#m
let's see colours that have never been seen
A           E      B             F#m
let's go to places no one else has been

D            E    A        C#5
You're in my mind all of the time
               D
I know that's not enough
D             E
if the sky can crack
           A         C#5
there must be some way back
             D
to love and only love

D E    F#m    A
   Electrical Storm
D E    F#m    A
   Electrical Storm
D E    F#m  A     B
   Electrical Storm
Baby don't cry



  F#m  A  E  B (2x)
E|-------------------------
B|-/12-10---5-7--5h7p5h7---
G|-------------------------  (2x)
D|-------------------------
A|-------------------------
E|-------------------------


F#m  A  E  B
It's hot as hell, honey in this room

sure hope the weather will break soon

the air is heavy, heavy as a truck

hope the rain will wash away our bad luck

D5    E5    A  C#5  D5
aaaaaaaa... aaaaaaaaa.....

D             E
If the sky can crack
           A         C#5
there must be some way back
              D
to love and only love

Refrão:

D E F#m        A
    Electrical Storm

D E F#m        A
    Electrical Storm

D E F#m        A       B
    Electrical Storm

F C

Solo: Em  A


E|--------------------------------------------------------------------
B|--------------------------------------------------------------------
G|-4/11--4/9--4/7--6-7-6-4-2-2~~--4/11--4/9--4/7--6-7-6-4-2-2/4-4-----
D|--------------------------------------------------------------------
A|--------------------------------------------------------------------
E|--------------------------------------------------------------------



E|----------------------------------------------------------------------
B|----------------------------------------------------------------------
G|-4/11--4/9--4/7--6-7-6-4-2-2/4-4/6-6-6-7-7P6-6-7-7/9-11-11/9-9/11-12--
D|----------------------------------------------------------------------
A|----------------------------------------------------------------------
E|----------------------------------------------------------------------



E|--------------------------------------------------------------
B|--------------------------------------------------------------
G|-14-14/16--18-18/19--19-19--18-18--19-19P18-18--19-19P18-18---
D|--------------------------------------------------------------
A|--------------------------------------------------------------
E|--------------------------------------------------------------



E|--------------
B|--------------
G|-19-19/21~~---
D|--------------
A|--------------
E|--------------


Em  A
Baby don't cry
Baby don't cry
Baby don't cry
Baby don't cry

OBS:
ESTE SOLO E FEITO COM SLIDE, MAS PODE SER FEITO SEM, PARA QUEM
TEM O SLIDE, ESTE DEVE SER USADO EM CIMA DO TRASTE.

LEGENDA DE SINAIS
/  = SLIDE
~~ = TREMULO
P  = PULL OFF
h  = hammeron
Texto Colunas
Alterar tom ½ tom ½ tom
afinação acordes na letra esconder tabs mais »

Comentários (1)

Composição: A. Horovitz / Adam Clayton / Arlindo Cruz / Bono / Larry Mullen, Jr. / Pino Daniele / The Edge / Zezé di Camargo
Esse não é o compositor? Avise-nos.
Contribuição: wiermann Correções: educaranba , Claudinha e mais 3 »
  1. Tudo Que Você Quiser - Luan Santana Manteve-se 5.417 exibições
  2. Lepo Lepo - Psirico Manteve-se 3.901 exibições
  3. Mozão - Lucas Lucco Manteve-se 3.749 exibições
  4. Logo Eu - Jorge e Mateus Manteve-se 3.341 exibições
  5. Gaveta - Fernando e Sorocaba Manteve-se 2.999 exibições
  6. Só Os Loucos Sabem - Charlie Brown Jr. Manteve-se 2.698 exibições
  7. Pra Você - Onze:20 Manteve-se 2.391 exibições
  8. Tempo Perdido - Legião Urbana Manteve-se 2.189 exibições
  9. Fui Fiel - Gusttavo Lima Manteve-se 2.019 exibições
  10. Na Linha do Tempo - Victor e Leo Manteve-se 1.925 exibições
  1. Jorge e Mateus- Manteve-se 20.025 exibições
  2. Legião Urbana- Manteve-se 17.810 exibições
  3. Luan Santana- Manteve-se 15.901 exibições
  4. Charlie Brown Jr.- Manteve-se 15.521 exibições
  5. Fernandinho- Manteve-se 13.364 exibições
  6. Thalles Roberto- Manteve-se 10.046 exibições
  7. Aline Barros- Manteve-se 9.582 exibições
  8. Católicas- Manteve-se 9.431 exibições
  9. Victor e Leo- Manteve-se 9.367 exibições
  10. Gusttavo Lima- Manteve-se 8.996 exibições
Exibir acordes »

Cifras e tabs

Fórum Cifra Club

Aprenda

Cifra Club News

Mais Serviços Cifra Club ID

Studio Sol

©1996 - 2014 Cifra Club · o primeiro, maior e mais acessado do Brasil · 329 mil músicas · 5.9 milhões pessoas cadastradas

publicidade
fechar