Ordinary Love

U2

 U2
Tom: B
		
(Parte 1 - 3X)


E|----------------------------------------------------------------|
B|-----5-----5---------4-----4---------4-----4---------2-----2----|
G|---6-----6-----6---4-----4-----4---4-----4-----4---3-----3-----3|
D|----------------------------------------------------------------|
A|-4-----4-----4-------------------2-----2-----2------------------|
E|-----------------4-----4-----4-------------------2-----2-----2--|


(Parte 2 - 1X)


E|----------------------------------------------------------------|
B|-----5-----5---------4-----4---------0-----0---------2-----2----|
G|---6-----6-----6---4-----4-----4---1-----1-----1---3-----3-----3|
D|----------------------------------------------------------------|
A|-4-----4-----4--------------------------------------------------|
E|-----------------4-----4-----4---0-----0-----0---2-----2-----2--|


--------------------------------------------------------------------

Parte 1

The sea wants to kiss the golden shore
The sunlight warms your skin
All the beauty that’s been lost before
Wants to find us again
I can’t fight you anymore
It’s you I’m fighting for

Parte 2

The sea throws rocks together
But time
Leaves us polished stones

C#m        G#m
We can't fall any further
B            F#
If we can't feel ordinary love
C#m         G#m
We cannot reach any higher
B            F#                  C#m
If we can't deal with ordinary love

Parte 1

Birds fly high in the summer sky
And rest on the breeze
The same wind will take care of you and
I will build our house in the trees
Your heart is on my sleeve
Did you put there with a magic marker?

Parte 2

For years I would believe
That the world couldn't wash it away

C#m        G#m
We can't fall any further
B                      F#
If we can't feel ordinary love
C#m         G#m
We cannot reach any higher
B            F#                   C#m
If we can't deal with ordinary love

( C#m  G#m  B  F# )

C#m         G#m       B
   Are we tough enough
    F#          C#m
For ordinary love

C#m        G#m
We can't fall any further
B                      F#
If we can't feel ordinary love
C#m         G#m
We cannot reach any higher
B            F#                   C#m
If we can't deal with ordinary love

C#m        G#m
We can't fall any further
B                      F#
If we can't feel ordinary love
C#m         G#m
We cannot reach any higher
B            F#                   C#m
If we can't deal with ordinary love
11.647 exibições

Comentários 6

  • freire.maori freire.maori: Postado em 13/09/2014 12:41

    Capotraste na segunda casa, Am, Em, G, D...

  • greg_gw greg_gw: Postado em 13/07/2014 04:40

    Assistam esse vídeo e sigam a cifra que dá pra tirar fácil fácil
    (tirem os espaços)
    youtube . com/watch?v=Fum3g86zUPc

  • educaranba educaranba: Postado em 14/03/2014 13:38

    chico vc que fez a introdução, ficou show

    • chico_rokk chico_rokk: Postado em 17/03/2014 09:46

      Fui eu mesmo cara. Tirei a música de ouvido e criei a tab :D

  • Henrique Henrique: Postado em 20/12/2013 12:42

    QUEREMOS VIDEO AULA AE CIFRACLUB

  • luan.goncalves.547 luan.goncalves.547: Postado em 10/12/2013 23:29

    Muito perfeita e fácil vlw ae

Composição: Bono/The Edge/Adam Clayton/Lauren Miller Jr
Esse não é o compositor? Avise-nos.
Contribuição: Álvaro Correções: chico_rokk , Bernardo e mais 2 »
Exibir acordes »
publicidade
fechar