Sunday Bloody Sunday

U2

 U2
Tom: C
		
Intro:  Am  C  F


E|----2-----2----0---0-------|
B|---3-3---3-3--3-3-3-3------|
G|--4-----2----0---0---0-----|
D|---------------------------|
A|---------------------------|
E|---------------------------|


Am         C               F
 I can't believe the news today
Am         C               F
 I can't close my eyes and make it go away

C5          D5
 How long, how long must we sing this song?
C5              D5
 How long, how long?

  A5  C5  F5                   A5 C5 F5
Tonight we can be as one, tonight

A5       C5             F5
 Broken bottles under children's feet
Am           C             F
 And body strewn across a dead-end street
Am            C               F
 But I won't heed the battle call
Am           C                F
 It puts my back up, puts my back up against the wall

Am   C          F
 Sunday, bloody Sunday (2x)

(Intro)

Sunday, bloody Sunday (Sunday, bloody Sunday)

E|----------------------------------|         e|---------13--12-------------------|
B|------------------(7)-------------|         B|---13--13-------13----------------|
G|-----(7)--(7)-(5)----(7)----------|    ou   G|-12----------------12-------------|
D|--(7)-------------------(7)-------|         D|----------------------------------|
A|----------------------------------|         A|----------------------------------|
E|----------------------------------|         E|----------------------------------|


( A5  C5  F5 ) (4x)

A5        C5             F5
 And the battles just begun
Am             C                 F
 There's many lost but tell me: who has won?
Am             C              F
 The trenches dug within our hearts
Am              C                  F
 And mother's children, brothers, sisters torn apart

Am   C          F
 Sunday, bloody Sunday  (2x)

C5          D5
 How long, how long must we sing this song?
C5              D5
 How long, how long?

  A5  C5  F5                   A5 C5 F5
Tonight we can be as one, tonight

Solo:


E|-----------------------------------------------------------|
B|-15-15--13-13---15-15--13-13--10-10--8-8--10-10--8-8-------|
G|-14-14--12-13---14-14--12-12--9--9---7-7--9--9---7-7-------|
D|-----------------------------------------------------------|
A|-----------------------------------------------------------|
E|-----------------------------------------------------------|



E|---------------------------------------------------------------------------------------|
B|-15-15--13-13---15-15--13-13--10-10--8-8--10-10--8-8---8-8-8--6-6-6--5-5-5--3-3-3------|
G|-14-14--12-13---14-14--12-12--9--9---7-7--9--9---7-7---7-7-7--5-5-5--4-4-4--2-2-2------|
D|---------------------------------------------------------------------------------------|
A|---------------------------------------------------------------------------------------|
E|---------------------------------------------------------------------------------------|



E|---------------------------------------------------------------------------------------|
B|-1-3-1-0--0-1-0------------------------------------------------------------------------|
G|-0-0-0-0--0-0-0---2--2-2/5---5-5-5/7---7-7-7/9---9-9-9/10---10-10-10/12--12-12-12/14---|
D|------------------2--2-2/5---5-5-5/7---7-7-7/9---9-9-9/10---10-10-10/12--12-12-12/14---|
A|---------------------------------------------------------------------------------------|
E|---------------------------------------------------------------------------------------|



E|---------------------------------------------|
B|---------------------------------------------|
G|-14-14-14/17---17-17-17--16--12--14-14~~-----|
D|-14-14-14/17---17-17-17--16--12--14-14~~-----|
A|---------------------------------------------|
E|---------------------------------------------|


                Am  C  F
Wipe your tears away    (5x)

Am   C           F
 Sunday, bloody Sunday (4x)

Sunday, bloody Sunday (Sunday, bloody Sunday)

E|----------------------------------|         e|---------13--12-------------------|
B|------------------(7)-------------|         B|---13--13-------13----------------|
G|-----(7)--(7)-(5)----(7)----------|    ou   G|-12----------------12-------------|
D|--(7)-------------------(7)-------|         D|----------------------------------|
A|----------------------------------|         A|----------------------------------|
E|----------------------------------|         E|----------------------------------|


( A5  C5  F5 ) (4x)

A5          C5            F5
 And it is true we are immune
A5          C5            F5
 When fact is fiction and TV reality
A5          C5            F5
 And today the millions cry
A5          C5            F5
 We eat and drink while they die
A5          C5            F5
 The real battle just begun
A5          C5            F5
 To claim the victory Jesus won
A5        C5         F5
On a Sunday, bloody Sunday
A5    C5        F5
 Sunday, bloody Sunday

obs: na tablatura acima a seguinte nota (7). ela esta deste modo pois é para ser tocada em cima do traste
com o dedo em cima do traste de leve para gerar o harmônico natural, pois é assim que o THE EGDE toca, caso
fique complicado a uma versão alternativa ao lado.

legenda de sinais

/ = silide
Texto Colunas
Alterar tom ½ tom ½ tom
afinação acordes na letra esconder tabs mais »

Comentários 18

  • Nathanielson Nathanielson: Postado em 27/03/2014 21:45

    qual o ritmo?

  • m.cardoso93 m.cardoso93: Postado em 04/02/2014 18:36

    sobe 1/2 tom

  • educaranba educaranba: Postado em 19/12/2013 20:45

    Qual ritmo?????????????
    não entendi!

  • Fernanda Fernanda: Postado em 04/12/2013 13:33

    Video Aula Por favor !!!!

  • lucas lucas: Postado em 03/12/2013 21:11

    qual e o ritimo?

  • educaranba educaranba: Postado em 04/11/2013 21:16

    fica mais fácil de gerar o harmônico natural na guitarra

  • educaranba educaranba: Postado em 01/11/2013 19:54

    As cifras acima estão corretas, as ultimas apresentações ao vivo a afinação é a padrão e nas mais antigas é 1/2 tom abaixo.

  • rafa_alcantara rafa_alcantara: Postado em 28/07/2013 20:09

    6D 8G 8B 8G 6D 6G 6B 6G 4D 6G 6B 6G Tentem esse riff era oq tava na ultima versão!

  • Mateus Mateus : Postado em 23/06/2013 15:53

    riff errado e fora do tom

Exibindo 10 de 18 comentários Mostrar mais ver todos »
Composição: A. Horovitz / Adam Clayton / Arlindo Cruz / Bono / Larry Mullen, Jr. / Pino Daniele / The Edge / Zezé di Camargo
Esse não é o compositor? Avise-nos.
Contribuição: xXCarolXx Correções: Fabio , seal_team e mais 12 »
  1. Domingo de Manhã - Marcos e Belutti Manteve-se 101.169 exibições
  2. Maus Bocados - Cristiano Araújo Manteve-se 44.081 exibições
  3. Logo Eu - Jorge e Mateus Manteve-se 42.375 exibições
  4. Recaídas - Henrique e Juliano Manteve-se 41.886 exibições
  5. Pra Você - Onze:20 Manteve-se 39.291 exibições
  6. Não Vai Voltar - Onze:20 Manteve-se 37.554 exibições
  7. Mulher - Projota Manteve-se 30.526 exibições
  8. Só Os Loucos Sabem - Charlie Brown Jr. Manteve-se 30.412 exibições
  9. Calma - Jorge e Mateus Manteve-se 27.299 exibições
  10. Pais e Filhos - Legião Urbana Manteve-se 26.600 exibições
  1. Jorge e Mateus- Manteve-se 283.219 exibições
  2. Legião Urbana- Manteve-se 208.795 exibições
  3. Charlie Brown Jr.- Manteve-se 146.863 exibições
  4. Marcos e Belutti- Manteve-se 124.938 exibições
  5. Fernandinho- Manteve-se 118.407 exibições
  6. Henrique e Juliano- Manteve-se 108.631 exibições
  7. Bruno e Marrone- Manteve-se 102.778 exibições
  8. Onze:20- Manteve-se 98.764 exibições
  9. Luan Santana- Manteve-se 92.109 exibições
  10. Thalles Roberto- Manteve-se 89.741 exibições
Exibir acordes »

Cifras e tabs

Fórum Cifra Club

Aprenda

Cifra Club News

Mais Serviços Cifra Club ID

Studio Sol

©1996 - 2014 Cifra Club · o primeiro, maior e mais acessado do Brasil · 335 mil músicas · 6.1 milhões pessoas cadastradas

publicidade
fechar