Vertigo

U2

 U2
Tom: D
		
Uno, dos, tres, catorce!

(Turn it up loud, captain)
Riff Principal:


E|-----------------------------------------
B|-----------------------------------------
G|-7/9-9--7-9-9--7-9-----------------------
D|-7/9-9--7-9-9--7-9--7-7-7-7-6-5----------
A|-5/7-7--5-7-7--5-7--7-7-7-7-6-5----------
E|--------------------5-5-5-5-4-3----------



Primeira Parte:

Lights go down, it's dark
The jungle is your head
Can't rule your heart
A feeling is so much stronger than
A thought your eyes are wide
And though your soul
It can't be bought
Your mind can wander

Refrão:

E5               D5
   Hello, hello,    (Hola!)
G5                        A5
   I'm at a place called Vertigo (Donde estás?)
E5                           D5
   It's everything I wish I didn't know
        G5            A5           (Riff Principal 2x)
Except you give me something I can feel, feel

Segunda Parte:

The night is full of holes
As bullets rip the sky
Of ink with gold
They twinkle as the
Boys play rock and roll
They know they can't dance
At least they know....
Riff da Segunda Parte 8x:

E|-12------10------10----------------------
B|------12------12----12-------------------
G|-----------------------------------------
D|-----------------------------------------
A|-----------------------------------------
E|-----------------------------------------



I can't stand the beats
I'm asking for the cheque
The girl with crimson nails
Has Jesus round her neck
Swinging to the music
Swinging to the music
Oh oh oh oh

Segundo Refrão:

E5               D5
   Hello, hello,    (Hola!)
G5                        A5
   I'm at a place called Vertigo (Donde estás?)
E5                           D5
   It's everything I wish I didn't know
        G5            A5           (Riff Principal 2x)
Except you give me something I can feel, feel

Ponte:
A5(9)  G5  D5(9)  A5(9)
                        Check mated
G5  D5(9)  A5(9)
                 Hours of fun
G5  D5(9)  A5(9)
                 Show meaning
Solo:

(Guitarra 1)


E|-----------------------------------------
B|-10-10-10---9--9--9----9-9-9---7-7-7-----
G|-9--9--9----9--9--9----9-9-9---9-9-9-----
D|-----------------------------------------
A|-----------------------------------------
E|-----------------------------------------



E|-----------------------------------------
B|-10-10-10---9--9--9----9-9-9-9--7-7-7----
G|-9--9--9----9--9--9----9-9-9-9--9-9-9----
D|-----------------------------------------
A|-----------------------------------------
E|-----------------------------------------



E|-----------------------------------------
B|-10-10-10---9--9--9----9-9-9---7-7-7-----
G|-9--9--9----9--9--9----9-9-9---9-9-9-----
D|-----------------------------------------
A|-----------------------------------------
E|-----------------------------------------



E|-----------------------------------------
B|-10-10-10---9--9--9----9-9-9-9--7-7/-----
G|-9--9--9----9--9--9----9-9-9-9--9-9/-----
D|-----------------------------------------
A|-----------------------------------------
E|-----------------------------------------


(Guitarra 2)


E|-12-12-12---12-12-12---------------------
B|-----------------------------------------
G|-----------------------------------------
D|-----------------------------------------
A|-----------------------------------------
E|-----------------------------------------


(Adaptação para uma guitarra)


E|-12-12-12---12-12-12---------------------
B|-10-10-10---9--9--9----9-9-9---7-7-7-----
G|-----------------------9-9-9---9-9-9-----
D|-----------------------------------------
A|-----------------------------------------
E|-----------------------------------------



E|-12-12-12---12-12-12---------------------
B|-10-10-10---9--9--9----9-9-9-9--7-7-7----
G|-----------------------9-9-9-9--9-9-9----
D|-----------------------------------------
A|-----------------------------------------
E|-----------------------------------------



E|-12-12-12---12-12-12---------------------
B|-10-10-10---9--9--9----9-9-9---7-7-7-----
G|-----------------------9-9-9---9-9-9-----
D|-----------------------------------------
A|-----------------------------------------
E|-----------------------------------------



E|-12-12-12---12-12-12---------------------
B|-10-10-10---9--9--9----9-9-9-9--7-7/-----
G|-----------------------9-9-9-9--9-9/-----
D|-----------------------------------------
A|-----------------------------------------
E|-----------------------------------------


Interlúdio:


   E5(9)      D5(9)
E|-------19---------17---------------------
B|----19---------17------------------------
G|-21---------19---------------------------
D|-----------------------------------------
A|-----------------------------------------
E|-----------------------------------------



E5(9)
All of this, all of this can be yours
D5(9)
      All of this, all of this can be yours
E5(9)
      All of this, all of this can be yours
      D5(9)
Just give me what I want and no-one gets hurt

Refrão Final:

E5               D5
   Hello, hello,    (Hola!)
G5                        A5
   I'm at a place called Vertigo (Donde estás?)
E5                    D5
   Lights go down and all I know
         G5            A5
Is that you give me something
       E5                 D5      G5  A5
I can feel your love teaching me how
E5               D5          G5  A5
   Your love is teaching me how,
        (Riff Principal)
How to kneel, kneel
Yeah yeah yeah yeah
Yeah yeah yeah
Yeah yeah yeah yeah
Yeah yeah yeah

( E5 )
Riff do Final:

(Guitarra 1)


E|-----------------------------------------
B|-10--9--7----7---------------------------
G|-----------9---7~~----7-9-7-6-7--6-7-9-9-  (2x)
D|-----------------------------------------
A|-----------------------------------------
E|-----------------------------------------



E|-0------0--0--0--0--0--------------------
B|-10/12--12-12-12-12-12-------------------
G|-----------------------------------------
D|-----------------------------------------
A|-----------------------------------------
E|-----------------------------------------



E|-0-----0------0--0--0--0--0--------------
B|-13\12—10/12--12-12-12-12-12-------------
G|-----------------------------------------
D|-----------------------------------------
A|-----------------------------------------
E|-----------------------------------------



E|-0------0--0--0--0--0--------------------
B|-10/12--12-12-12-12-12-------------------
G|-----------------------------------------
D|-----------------------------------------
A|-----------------------------------------
E|-----------------------------------------



E|-0-----0------0--0--0--0--0--------------
B|-13\12—10/12--12-12-12-12-12-------------
G|-----------------------------------------
D|-----------------------------------------
A|-----------------------------------------
E|-----------------------------------------


(Guitarra 2)


E|-----12-------12-------12--------12------
B|-15-------15-------15-------15-----------
G|-----------------------------------------
D|-----------------------------------------
A|-----------------------------------------
E|-----------------------------------------

Comentários 7

  • nathan.amaral.357 nathan.amaral.357: Postado em 23/11/2014 04:43

    minha guitarra e uma strato e só tem 22 trastes mas força minha mão um pouco mas olha a musica uma dor qualquer não vai me parar

  • lukewilkshire.lukwill lukewilkshire.lukwill: Postado em 25/03/2014 19:14

    muito boa

  • porpatrick porpatrick: Postado em 21/01/2013 21:43

    Só q esse dai n e o BONO n mto menos o U2. Esse dai e o Zeno da banda cover do Zen U2.(P.S.:Olha o baixista diferente atras)

  • soulmetal soulmetal: Postado em 07/09/2012 10:10

    muito legal pra se tocar... é animada e não é dificil... além da música ser ótima \o/

  • samucacqc samucacqc: Postado em 02/08/2012 20:39

    no começo so cança o braço mas e facil de tocar

  • igormetallica igormetallica: Postado em 07/10/2011 11:22

    u2 forever

  • pedropache pedropache: Postado em 26/01/2011 20:29

    muito fácil valeu

Composição: A. Horovitz / Adam Clayton / Arlindo Cruz / Bono / Larry Mullen, Jr. / Pino Daniele / The Edge / Zezé di Camargo
Esse não é o compositor? Avise-nos.
Contribuição: Luizim Correções: v.inny , skullgold666 e mais 3 »
Exibir acordes »
publicidade
fechar