Inútil

Ultraje a Rigor

 Ultraje a Rigor
Tom: G
		
Intro:
(este é o riff principal - baixo faz ele durante toda a música)

E|----------------------------------|
B|----------------------------------|
G|----------------------------------|
D|-2-2-0-5--5-4-0-2-2--0-5-5-4-0----|  (3x)
A|----------------------------------|
E|----------------------------------|



E|----------------------------------|
B|----------------------------------|
G|----------------------------------|
D|-2-2-0-5--5-4-0-------------------|
A|----------------------------------|
E|----------------------------------|



E|---------|
B|---7*----|
G|---7*----|
D|---7*----|
A|---------|
E|---------|


Em                       G
A gente não sabemos escolher presidente
Em                         G
A gente não sabemos tomar conta da gente
Em                          G
A gente não sabemos nem escovar os dente
Em                           G
Tem gringo pensando que nóis é indigente

Refrão:
Em G   Em G
Inútil
Em    G    Em    G
A gente somos inútil

Em                     G
A gente faz carro e não sabe guiar
Em                          G
A gente faz trilho e não tem trem prá botar
Em                        G
A gente faz filho e não consegue criar
Em                        G
A gente pede grana e não consegue pagar

Refrão:
Em G   Em G
Inútil
Em    G    Em    G
A gente somos inútil

Em                         G
A gente faz música e não consegue gravar
Em                            G
A gente escreve livro e não consegue publicar
Em                           G
A gente escreve peça e não consegue encenar
Em                        G
A gente joga bola e não consegue ganhar

Refrão:
Em G   Em G
Inútil
Em    G    Em    G
A gente somos inútil
Solo:

E|---------------7*---12*---|
B|----12*---7*---7*---12*---|
G|----12*---7*---7*---12*---|
D|----12*---7*--------------|
A|--------------------------|
E|--------------------------|



E|---10/12-12-12-10/12-12-12-10/12-12-12-10/12--3x---|
B|---------------------------------------------------|
G|---------------------------------------------------|
D|---------------------------------------------------|
A|---------------------------------------------------|
E|---------------------------------------------------|



E|---10>12-12-12----12-12-12-------------|
B|---------------12----------12^-10------|
G|----------------------------------12---|
D|---------------------------------------|
A|---------------------------------------|
E|---------------------------------------|



E|---------------------------------------------------------|
B|---------------------------------------------------------|
G|----------------------------------------------12-14------|
D|----------------12-14---(16)------------12-14-------12---|
A|-12-14----12-14-------------12----12-14------------------|
E|---------------------------------------------------------|



E|---------------------------------------------------------|
B|---------------------------------------------------------|
G|--12h14p12----12h14p12-----------------------------------|
D|-----------12------------------12-14---------------------|
A|-------------------------12-14--------12---12h14p12-10---|
E|---------------------------------------------------------|
Texto Colunas
Alterar tom ½ tom ½ tom
afinação acordes na letra esconder tabs mais »

Comentários (16)

  • lukewilkshire.lukwill lukewilkshire.lukwill: Postado em 31/01/2014 11:24

    A versão nova dessa musica é muito melhor, do álbum Ultraje A Rigor Vs. Raimundos

  • rafaelmap rafaelmap: Postado em 02/01/2013 16:19

    D|-2-2-0-5--5-4-0--2-2--0-5-5-4-4-0-| (4x)
    É assim ok? Vi alguns erros ai em, se puder arrumem ai!

  • vanhalen1984 vanhalen1984: Postado em 01/11/2012 22:20

    cara oq significa essa estrela

    • fabioalaraujo fabioalaraujo: Postado em 23/11/2012 14:48

      harmônico, vc vai encostar o dedo de leve sobre os trastes

    • André André: Postado em 25/08/2013 15:41

      Nem é! é só uma vez no 4
      D|-2-2-0-5--5-4-0--2-2--0-5-5-4-0-|

  • alexia_grace alexia_grace: Postado em 10/08/2012 01:42

    Muito fácil e legal de cantar , principalmente por causa da letra :D

  • AndreMury AndreMury: Postado em 13/03/2012 02:11

    Ouvido meu caro, ouvido.

  • davyd_mauro davyd_mauro: Postado em 03/01/2012 15:28

    naum tô entendendo esse solo, tá totalmente errado a partir da 3º parte ...

  • kevin_kouketsu kevin_kouketsu: Postado em 14/12/2011 12:12

    fácil fácil ' ;p

  • end end: Postado em 11/12/2011 12:44

    o solo ta errado

    • rafaelmap rafaelmap: Postado em 02/01/2013 16:19

      D|-2-2-0-5--5-4-0--2-2--0-5-5-4-4-0-| (4x) xD

Exibindo 11 de 16 comentários Mostrar mais ver todos »
Composição: Roger Moreira
Esse não é o compositor? Avise-nos.
Contribuição: Massa Correções: axl , zoreia e mais 4 »
  1. Tudo Que Você Quiser - Luan Santana Manteve-se 5.838 exibições
  2. Lepo Lepo - Psirico Manteve-se 4.258 exibições
  3. Mozão - Lucas Lucco Manteve-se 4.092 exibições
  4. Logo Eu - Jorge e Mateus Manteve-se 3.677 exibições
  5. Gaveta - Fernando e Sorocaba Manteve-se 3.251 exibições
  6. Só Os Loucos Sabem - Charlie Brown Jr. Manteve-se 2.945 exibições
  7. Pra Você - Onze:20 Manteve-se 2.783 exibições
  8. Tempo Perdido - Legião Urbana Manteve-se 2.356 exibições
  9. Fui Fiel - Gusttavo Lima Manteve-se 2.236 exibições
  10. Na Linha do Tempo - Victor e Leo Manteve-se 2.111 exibições
  1. Jorge e Mateus- Manteve-se 22.167 exibições
  2. Legião Urbana- Manteve-se 19.327 exibições
  3. Luan Santana- Manteve-se 17.248 exibições
  4. Charlie Brown Jr.- Manteve-se 16.750 exibições
  5. Fernandinho- Manteve-se 14.218 exibições
  6. Thalles Roberto- Manteve-se 10.904 exibições
  7. Católicas- Manteve-se 10.314 exibições
  8. Aline Barros- Manteve-se 10.062 exibições
  9. Victor e Leo- Manteve-se 10.039 exibições
  10. Gusttavo Lima- Manteve-se 9.893 exibições
Exibir acordes »

Cifras e tabs

Fórum Cifra Club

Aprenda

Cifra Club News

Mais Serviços Cifra Club ID

Studio Sol

©1996 - 2014 Cifra Club · o primeiro, maior e mais acessado do Brasil · 329 mil músicas · 5.9 milhões pessoas cadastradas

publicidade
fechar