Nada a Declarar

Ultraje a Rigor

 Ultraje a Rigor
Tom: A
		
(versão 1)

(intro - guitarra 1)

E|----------------------------------------
B|----------------------------------------
G|----------------------------------------
D|----------------------------------------
A|--0-0-3h4--0-0-3h4--0-0-3h4--0-0-3h4----
E|----------------------------------------


(guitarra 2 - Entra em cima da base da guitarra 1 com o seguinte solinho)


E|--------------------------------------------8h9----------------
B|-----------------------------------9h10------------------------
G|-------------------5h6-----8h9-6-6------9-9--------------------
D|-----------6h7-------- 7-7-------------------------------------
A|--6h7-4-4------5-5---------------------------------------------
E|---------------------------------------------------------------


(riffs durante a música)


   (riff 1 = A)       (riff 2 = E)
E|-------------     e|-------------
B|-------------     B|-------------
G|-------------     G|-------------
D|-------------     D|-------------
A|--0-0-3h4----     A|-------------
E|-------------     E|--0-0-3h4----


      (riff 1)                       (riff 2)
Eu Tô Sentindo que a Galera anda entedeada
                                 (riff 1)
Não tô ouvindo num nada e num tô dando risada
                (riff 2)
Aí qualé, vamos lá moçada
                  (riff 1)
Vamos mexer, vamo dar uma agitada
                     (riff 2)
Esse nosso papo anda tão furado
                           (riff 1)
É Baixaria come come bunda pra todo lado

    D                       A
Eu quero me esbaldar quero lavar a alma
E                        A
Quem sabe sabe, quem não sabe bate palma
D                      A
E pra celebrar a nossa falta de assunto
E                      A
Vamo todo mundo cantar junto

(refrão)
A                     E
Eu não tenho nada pra dizer
E                           A
Também não tenho mais o que fazer
A                    D
Só pra garantir esse refrão
E                    A
Eu vou lhe enfiar um palavrão
cú
    A
cú trú cú

(solo)

E|---------------------------------------------------------------------------------
B|--------12h14--------12h14--------12h14--------12h14--------12h14--------12h14---
G|--14-14--------14-14--------14-14--------14-14--------14-14--------14-14---------
D|---------------------------------------------------------------------------------
A|---------------------------------------------------------------------------------
E|---------------------------------------------------------------------------------



E|---------------------------------------------------------------------------------
B|--------12h14--------12h14-------------------------------------------------------
G|--14-14--------14-14--------14-14-12-14------------------------------------------
D|----------------------------------------14-14--12-14-11---9-11-7-7---5-7---------
A|-------------------------------------------------------------------------7-7-----
E|---------------------------------------------------------------------------------



E|-----------------------------------------------------------------------
B|-----------------------------------------------------------------------
G|-----------------------------------------------------------------------
D|-----------------------------------------------------------------------
A|--5-7-4-4--2-4---------------------------------------------------------
E|---------------5-5-----------------------------------------------------


          (riff 1)                  (riff 2)
Mas eu tô vendo que a Galera anda entedeada
                              (riff 1)
Não tá fazendo nada eu num tô dando risada
                (riff 2)
Aí qualé, vamos lá moçada
                  (riff 1)
Vamo agitar, vamo dá uma detonada
                     (riff 2)
Esse nosso povo anda tão chutado
                                     (riff 1)
Quando não é um vereador roubando é um deputado

    D                       A
Eu quero me esbaldar quero lavar a alma
E                        A
Quem sabe sabe, quem não sabe bate palma
D                      A
E pra celebrar a nossa falta de assunto
E                      A
Vamo todo mundo cantar junto

(refrão)
A                     E
Eu não tenho nada pra dizer
E                           A
Também não tenho mais o que fazer
A                    D
Só pra garantir esse refrão
E                    A
Eu vou lhe enfiar um palavrão
cú
    A
cú trú cú

(solo - varias vezes)

   ^^ ^^ ^^ ^^ ^^

E|-15-15-15-15-15--
B|-----------------
G|-----------------
D|-----------------
A|-----------------
E|-----------------


D                       A
Eu quero me esbaldar quero lavar a alma
E                        A
Quem sabe sabe, quem não sabe bate palma
D                    A
E pra coroar a nossa falta de assunto
E                      A
Vamo todo mundo cantar junto

(refrão)

(versão 2)

(intro) A E

A                                    E
Eu 'tô sentindo que a galera anda entediada
                                A
não 'tô ouvindo nada e não 'tô dando risada
                  E
Aí, qualé? Vamos lá moçada!
                    A
Vamos mexer, vamos dar uma agitada!
                      E
Esse nosso papo anda tão furado
                                   A
É baixaria, dor-de-corno e bunda prá todo lado
          D                    A
Eu quero me esbaldar, quero lavar a alma
E                           A
Quem sabe, sabe e quem não sabe bate palma
D                       A
E pra celebrar a nossa falta de assunto
E                        A
Vamos todo mundo cantar junto

A                        E
Eu não tenho nada prá dizer
                               A
Também não tenho mais o que fazer
               A7          D
e só pra garantir este refrão
E                      A
eu vou enfiar um palavrão
Cu...

A                        E
Eu não tenho nada prá dizer
                               A
Também não tenho mais o que fazer
               A7          D
e só pra garantir este refrão
E                      A
eu vou enfiar um palavrão
Cu... de novo, Cu!!!

            A                         E
Mas eu 'tô vendo que a galera anda entediada
                                   A
não 'tá fazendo nada e eu não 'tô dando risada
                  E
Aí, qualé? Vamos lá moçada!
                     A
Vamos agitar, vamos dar uma detonada!
                      E
Esse nosso povo anda tão chutado
                                         A
Quando não é um vereador roubando, é um deputado
          D                    A
Eu quero me esbaldar, quero lavar a alma
E                           A
Quem sabe, sabe e quem não sabe bate palma
D                       A
E pra celebrar a nossa falta de assunto
E                        A
Vamos todo mundo cantar junto

A                        E
Eu não tenho nada prá dizer
                               A
Também não tenho mais o que fazer
               A7          D
e só pra garantir este refrão
E                      A
eu vou enfiar um palavrão
Cu!!!

A                        E
Eu não tenho nada prá dizer
                               A
Também não tenho mais o que fazer
               A7          D
e só pra garantir este refrão
E                      A
eu vou enfiar um palavrão
Cu!!!

(A E)

          D                    A
Eu quero me esbaldar, quero lavar a alma
E                           A
Quem sabe, sabe e quem não sabe bate palma
D                       A
E pra celebrar a nossa falta de assunto
E                        A
Vamos todo mundo cantar junto

A                        E
Eu não tenho nada prá dizer
                               A
Também não tenho mais o que fazer
               A7          D
e só pra garantir este refrão
E                      A
eu vou enfiar um palavrão

Comentários 11

Exibindo 10 de 11 comentários Mostrar mais ver todos »
Composição: Roger Moreira
Esse não é o compositor? Avise-nos.
Contribuição: Jean
Exibir acordes »
publicidade
fechar