Dívida

Ultramen

 Ultramen
Tom: C
		
   Dm7		  Gm	     C7	         Dm7
Um homem com palavra é um homem da verdade
   Dm7	       Gm	   C7	     Dm7
É requisito básico pra personalidade
      Dm7	  Gm       C7          Dm7
Não importa a idade a cidade ou a nação
    Dm7	         Gm    C7         Dm7
Respeito é herança da civilização

   Dm7	         Gm         C7            Dm7
A taxa é zero o juro é alto vamos conversar
    Dm7	      Gm        C7          Dm7       (2x)
Ressarcimento pagamento vamos negociar

        Dm7   G7        C7       Dm7
Aquela dííívida, de uns anos atrás
         Dm7 G7	    C7            Dm7         (2x)
está bem viiiva, você não lembra mais...

    Dm7	        Gm	   C7             Dm7
Não é só na Santana Leopoldina ou Parthenon
   Dm7		       Gm       C7           Dm7
A honra é coisa muito séria em qualquer região
Dm7		  Gm	    C7            Dm7
Aquele safado me deve, deve pra você também
Dm7                 Gm      C7              Dm7
E ainda por cima de tudo acha que tá tudo bem

   Dm7	         Gm         C7            Dm7
A taxa é zero o juro é alto vamos conversar
    Dm7	      Gm        C7          Dm7       (2x)
Ressarcimento pagamento vamos negociar


        Dm7   G7        C7       Dm7
Aquela dííívida, de uns anos atrás
         Dm7 G7	    C7            Dm7         (2x)
está bem viiiva, você não lembra mais...
Solo:

Versão 1:

E|-----------------------------------------------------------------------------|
B|-10-8-6---10-8-6---10-8-6-6-8-10~----10-8-6---10-8-6------6---6--6-8-6~------|
G|--------7--------7--------------------------7--------7~-7---7---7------------|
D|-----------------------------------------------------------------------------|
A|-----------------------------------------------------------------------------|
E|-----------------------------------------------------------------------------|



E|------------------------------------13br-13~-10----10-10---------------------|
B|-10-8-6---10-8-6---10-8-6-6-8-10~---------------13-----------------------10--|
G|--------7--------7---------------------------------------14-13-12-10~----10--|
D|----------------------------------------------------------------------12-----|
A|-----------------------------------------------------------------------------|
E|-----------------------------------------------------------------------------|



E|-----------------------------------------------------------------------------|
B|-13b~-13br-10----------------------------------------------------------------|
G|-12b~-12br-10----------------------------------------------------------------|
D|--------------12~------------------------------------------------------------|
A|-----------------------------------------------------------------------------|
E|-----------------------------------------------------------------------------|


Versão 2:

E|-----------------------------------------------------------|
B|---------12----------12----------12-------------12~--------|
G|------------14-12-------14-12-------14-12-12-14------------|
D|------------------14----------14---------------------------|
A|-----------------------------------------------------------|
E|-----------------------------------------------------------|



E|-----------------------------------------------------------|
B|------12----------12---------------------------------------|
G|---------14-12-------14-12-------12----12----12-14-12------|
D|---------------14----------14-14----14----14---------------|
A|-----------------------------------------------------------|
E|-----------------------------------------------------------|



E|-----------------------------------------------------------|
B|---------12----------12----------12-------------12~--------|
G|------------14-12-------14-12-------14-12-12-14------------|
D|------------------14----------14---------------------------|
A|-----------------------------------------------------------|
E|-----------------------------------------------------------|



E|-12--------------------------------------------------------|
B|----15~-12----12-12-12-------------------------------------|
G|-----------14----------14-14-14-12~----12-14br-12-12-12----|
D|------------------------------------14------------------14-|
A|-----------------------------------------------------------|
E|-----------------------------------------------------------|


   Dm7           Gm        C7          Dm7
A sua justificativa é o ensino escolar
    Dm7             Gm      C7            Dm7
Não aprendeu a dividir só quer multiplicar
  Dm7                Gm       C7            Dm7
Amigo chega de conversa já estou passando mal
   Dm7               Gm       C7            Dm7
Resolveremos esse cálculo no distrito policial


   Dm7	         Gm         C7            Dm7
A taxa é zero o juro é alto vamos conversar
    Dm7	      Gm        C7          Dm7       (2x)
Ressarcimento pagamento vamos negociar


        Dm7   G7        C7       Dm7
Aquela dííívida, de uns anos atrás
         Dm7 G7	    C7            Dm7         (3x)
está bem viiiva, você não lembra mais...

( Dm7  Gm  C7  Dm7 )
147.384 exibições

Comentários 0

Composição: Henry Creamer / Jake Porter / Lester Allen / Mark C. Rooney / Mauricio Abaroa / Preston Glass
Esse não é o compositor? Avise-nos.
Contribuição: andre Correções: Kopzr e mais 1 »
Exibir acordes »
publicidade
fechar