Tubarãozinho

Ultramen

 Ultramen Compositor: Ultramen
Tom: G
		
Riff Principal

E|-------------------------------------------------------------|
B|-------------------------------------------------------------|
G|-------------------------------------------------------------|
D|----2-------5-4-2-4-2-----------2----------------------------|
A|-4-----------------------2-3-4----------------------2-3-4----|
E|------3--2--------------4---------3--2--3-2-0-2-0-4----------|


É um bicão em qualquer passeata
Pega a bandeira e vai gritando com a massa
Seu pai bebeu, ele na brisa e no breu.
E o gueto tão distante na porta bateu
E vai atrás, conhece toda nata.
A Viviane é a sua namorada
De dia vai perdendo o bom tempo
De noite a razão se joga pro sereno
 - Riff de subida

E|--------------------------------|
B|--------------------------------|
G|--------------------------------|
D|---------2-4-5-6----9-9-10-11\--|
A|---2-3-4------------------------|
E|-4------------------------------|



C#m
Não quero mais
Nem posso ver
 F#7
Não quero mais
                A
Brincar com você
                        E
Eu desisto, eu desisto.

E o troço pega a tal velocidade
Como tudo aquilo que te tira a vontade
Estagnado
Boiando num marzão
Cheio de piranha, de pirata e tubarão.
Paga de boy
Ele é humildade zero
Na Roma antiga deveria ser o Nero
Berço de ouro
Nunca varreu um chão
Dinheiro não é problema
Sempre é solução
Mamãe não vê onde seu tubarãozinho chora
Achou que filho de peixe grande não se afoga
Ainda dá tempo, assume teu papel no mundo.
Não deixe que esse mar de lama inunde tudo

Não quero mais... (2x)
e o troço pega... (2x)

Solo 6x: C#m F#7

  e o troço pega... (2x) Solo (8x) com final

E|--------------------------------|
B|--------------------------------|
G|--------------------------------|
D|---------2-4-5-6----9-9-10-11\--|
A|---2-3-4------------------------|
E|-4------------------------------|
19.040 exibições

Comentários 0

Composição: Ultramen
Esse não é o compositor? Avise-nos.
Contribuição: Aéro Correções: jivagocapre e mais 1 »
Exibir acordes »
publicidade
fechar