Não Tenho Outro Bem

Um Toque a Mais

Sem foto do Um Toque a Mais Compositor: David Arcanjo / Ronald Fonseca / Davi Sacer
Tom: G
		
(intro) G7M  Dm7/9 Db7/9 C7M G/B Am7 C/D

G7M
Não importa quem sou
Dm7/9            Db7/9
Nem o que tenho
C7M G/B  Am7 Am/G C/D  D7/b9
Diante do que tu és

G7M
Trago minhas vestes
Dm7/9       Db7/9
Minha coroa
C7M G/B Am7 Am/G C/D D7/b9
E   ofereço a   ti

         G7M            C/A
Como os vinte e quatros anciãos
        D/B           Am7
E as entradas em jerusalem
     G7M              C/A
A mulher da casa de simão
       D/B      D/C   C/D D7/b9
Eu me lanço aos teus pés

                 G7M        C/A
Não tenho outro bem além de ti
                 D/B        C/A
Não tenho outro bem além de ti
                 G7M        Am7
Não tenho outro bem além de ti
    C/D  D7/b9
Senhor


E|-------------------------------------------------------------------------------------|
B|-----------------15-12---------------------------------------------------------------|
G|----12----12-13b-------14-12-15-14-12----13p12-------------------------12------------|
D|-14----14-----------------------------14-------14-12-------------12-14----14-12-14~--|
A|-----------------------------------------------------14-12/14-14---------------------|
E|-------------------------------------------------------------------------------------|


         G7M            C/A
Como os vinte e quatros anciãos
        D/B           Am7
E as entradas em jerusalem
     G7M              C/A
A mulher da casa de simão
       D/B      D/C   C/D D7/b9
Eu me lanço aos teus pés

                 G7M        C/A
Não tenho outro bem além de ti
                 D/B        C/A
Não tenho outro bem além de ti
                 G7M        Am7
Não tenho outro bem além de ti
    C/D  D7/b9
Senhor

       G7M  C/A
Eu te amo
        D/B  C/A
Eu te adoro
        G7M Am7   C/D  D7/b9   G/C G/B Am7 G7M
Eu te quero    Senhor


E|------------------------------------------------------------------------|
B|----15-15-15-----------15-15-15-----------15-15-15--17-17---------------|
G|-12----------12-12--12----------12-12--12-----------------12-16-14------|
D|------------------------------------------------------------------------|
A|------------------------------------------------------------------------|
E|------------------------------------------------------------------------|



E|-------------------------------------------------------------15-17-19-17-17~-|
B|----15-15-15-----------15-15-15-----------15-15-15--17-17-19-----------------|
G|-12----------12-12--12----------12-12--12------------------------------------|
D|-----------------------------------------------------------------------------|
A|-----------------------------------------------------------------------------|
E|-----------------------------------------------------------------------------|


         G7M            C/A
Como os vinte e quatros anciãos
        D/B           Am7
E as entradas em jerusalem
     G7M              C/A
A mulher da casa de simão
       D/B      D/C   C/D D7/b9
Eu me lanço aos teus pés

                 G7M        C/A
Não tenho outro bem além de ti
                 D/B        C/A
Não tenho outro bem além de ti
                 G7M        Am7
Não tenho outro bem além de ti
    C/D  D7/b9
Senhor

       G7M  C/A
Eu te amo
        D/B  C/A
Eu te adoro
        G7M Am7   C/D  D7/b9   G/C G/B Am7 G7M
Eu te quero    Senhor

(refrão)
1.264 exibições

Comentários 0

Consegui tocarAinda não conseguiram tocar essa música. Seja o primeiro!
    Não consegui tocar
    Exibir acordes »
    publicidade
    fechar