Do You Know My Name

Union

 Union
Tom: D
		
Tune to Eb or E I can¹t remember 
     
(OPENING ACCOUSTIC) 

E|-------------------------------------------
A|-------------------------------------------
G|---------------------------------------7-5
D|-8-8-8-6-6-6-4-4-4-6-6-6-8-8-8-6-6-6-2-7-5
B|-8-8-8-6-6-6-4-4-4-6-6-6-8-8-8-6-6-6-2-5-3
E|-6-6-6-4-4-4-2-2-2-4-4-4-6-6-6-4-4-4-0----

     
(ELECTRIC)

E|----------------------------------------------------------------------
A|----------------------------------------------------------------------
G|-------------------------------------------------------3--------------
D|-8-8-8-6-6-6-4-4-4-6-6-6-8-8-8-6-6-6--------------------3-------------
B|-8-8-8-6-6-6-4-4-4-6-6-6-8-8-8-6-6-6-4-6-4-6-4---4-6-4---4-6-X-X-4-X-4
E|-6-6-6-4-4-4-2-2-2-4-4-4-6-6-6-4-4-4-4-6-4-6-4---------------X-X-4-X-4
                                                 ---REPEAT 5 TIMES---

                              
(BASIC RHYTHEM) (BRUCE)              (JOHN)(LISTEN TO CD TO FIND OUT HOW TO
                                             PLAY  THIS PART)


E|---------------------------------     ----------------------------------------
A|-9------9---------9------(9-11B)      ----------------------------------------
G|--8-7----8-7-------8-7-----------     ----------------------------------------
D|-------------8-6-----------------     4--------4/5-4--------------------------
B|---------------------------------     2--------2/3-2--------------------------
E|---------------------------------     ----------------------------------------


       () IS ONLY INCLUDED BEFORE FIRST CHORUS

(PRe|-CHORUS) (REPEAT 2x)


E|--------------------------------------
B|--------------------------------------
G|--------------------------------------
D|--------------------------------------
A|-4-6‹-4-6‹-4-6‹-4-6b‹-4-6‹-4-6‹-4-6b-4
E|-4-6‹-4-6‹-4-6‹-4-6b‹-4-6‹-4-6‹-4-6b-4

    

(CHORIS)                        

E|-----------------------------------------------------------
A|-----------------------------------------------------------
G|-----------------------------------------------------------
D|-8-8-8-6-6-6-4-4-4-6-6-6-8-8-8-6-6-6---------@-------------
B|-8-8-8-6-6-6-4-4-4-6-6-6-8-8-8-6-6-6-4-6-4-6-4-6-4-4-X-X-X-
E|-6-6-6-4-4-4-2-2-2-4-4-4-6-6-6-4-4-4-4-6-4-6-4-6-4-4-X-X-X-

           @= end second repeat here





(SOLO 1)


E|----------------------------------------
B|------------------------14b-11v---------
G|-13v-11-13-12-10v-12-14-----------------
D|----------------------------------------
A|----------------------------------------
E|----------------------------------------



(RHYTHEM PLAY DURING SOLO 1)


E|--------------------------
B|--------------------------
G|--------------------------
D|------2-1--------X-X-1-X-1
A|-1-2-1---1-2-2-1-X-X-1-X-1
E|--------------------------



(PLAY DURING SOLO 2)


E|-------------------------------------------------------------------------
B|-------------------------------------------------------------------------
G|-3--------------3-----------------------------------------------------
D‹-2b-2b-0--------2b-1-------------------------------------------------
A|-----------------------------------4-6‹-4-6‹-4-6‹-4-6b‹-4-6‹-4-6‹-4-6-4--
E|-----------------------------------4-6‹-4-6‹-4-6‹-4-6b‹-4-6‹-4-6‹-4-6-4--
  (REPEAT 4x)   (REPEAT 16x)                (REPEAT 2X)



(PLAY DURING 3RD CHORUS)
  (3a)              (3b)

E|---------------------------------
B‹-6---6-------------6‹-9--------
G‹--6-----------------6-----------
D|-8---8-------------8‹-8----------
A|---------------------------------
E|---------------------------------
   (REPEAT 3x) (THEN)(3b) (THEN REPEAT THAT PATTERN 2x)



(SOLO 2)( I DON¹T LIKE TO TAB OUT SOLO¹S SO THIS SHOULD GET U STARTED, IT¹S CORRECT TOO)


E|---------------------       
B|----------------8b---       
G|-10v-12b-----------10         
D|---------11b-9v------         
A|---------------------        
E|---------------------
889 exibições

Comentários 0

Composição: Sabe quem é o compositor? Envie pra gente. Contribuição: diablo
Consegui tocarAinda não conseguiram tocar essa música. Seja o primeiro!
    Não consegui tocar
    Exibir acordes »
    publicidade
    fechar