Tão Longe do Fim

Uns e Outros

 Uns e Outros
Tom: D
		
(base 1) Bm G D A

Um dia que nasce
Na montanha o sol se levanta
Inunda meus olhos
De um vermelho quase sempre real

(riff 1)

E|---5-3--2--------------------------
B|------------3--5--7s8--7--5--3-----



E|---5--3--2-------------------------
B|------------3--5--7--7~------------


(continua a base 1) Bm G D A

Você foi embora
riff 2
Mas voltou trazendo o mar nos cabelos          (riff 2)

Num final de tarde que nunca parecia acabar     e|--2-3--2-0----------
                                                b|------------3--2--0-


(refrão) Em G Bm D

Posso sentir a noite cair sobre mim
Posso sentir minha vida tão longe do fim
Como se o tempo agora párasse de vês

(volta pra base 1) Bm G D A

Um dia que nasce
riff 3
Na montanha o sol se levanta           (riff 3)

Inunda meus olhos                     e|---3--2--0---------
Do vermelho quase sempre real         b|------------3--5s7-


(riff 1)

E|---5-3--2------------------------
B|------------3--5--7s8--7--5--3---



E|---5--3--2-----------------------
B|------------3--5--7--7-----------


Você foi embora
Mas voltou trazendo o mar nos cabelos
Num final de tarde
Que nunca parecia acabar

(refrão) Em G Bm D

Posso sentir a noite cair sobre mim
Posso sentir minha vida tão longe do fim
Como se o tempo párasse de vês

(solo)

E|--------------------------------------------------------5--7~----
B|---5--3--2--3--5s7---5--3--2--3--5s8--5--3--2--3-5s7-------------



E|---7--5--3--2--3--5--7--7--5--3--2--3--5s7~--5--3--2--3--5---3---2---
B|--------------------------------------------------------------------2
4.608 exibições

Comentários 0

Composição: Sabe quem é o compositor? Envie pra gente. Contribuição: Wendel Correções: Gustavo e mais 2 »
Exibir acordes »
publicidade
fechar