Palpite

Vanessa Rangel

Sem foto do Vanessa Rangel
Tom: A
		
Intro:  E  F#/E  A9  E


E|--------------------|
B|--------------------|
G|--------------------|
D|--------------------|
A|2h4h2---------------|
E|------4h2h4h2--0----|



E|--7---------------------------------------------------------|
B|----9-7----------7-------9/10/9--7--------------------------|
G|--------7------------------------7--------------------------|
D|----------7--6-8-----8-9-------------7----------------------|
A|------------------------------------------------------------|
E|------------------------------------------------------------|


E                                       F#/E
 Tô com saudade de você Debaixo do meu cobertor
A9                  Am           E
 E te arrancar suspiros, fazer Amor
E                            F#/E
Tô com saudade de você Na varanda em noite quente
A9             Am           C#m           A
 E o arrepio frio que dá na gente Truque do desejo
           C#m           A
Guardo na boca o gosto do beijo

(Ponte)

    C                                D
Eu sinto a falta de você    Me sinto só

Refrão:

    E                F#/E                A9    Am     E
E aí, será que você volta? Tudo à minha volta     é triste
    E               F#/E         A9         Am    E
E aí, o Amor pode acontecer de novo pra você, Palpite

E                                 F#/E
 Tô com saudade de você do nosso banho de chuva
A9                  Am             E
Do calor na minha pele, da língua tua
E                            F#/E
Tô com saudade de você Censurando o meu vestido
A9              Am            C#m              A
 As juras de Amor  ao pé do ouvido, truque do desejo
           C#m             A
Guardo na boca o gosto do beijo

(Ponte)
(Refrão)  (3x)
(Solo)
(Ponte)
(Refrão)  (2x)
Texto Colunas
Alterar tom ½ tom ½ tom
afinação acordes na letra esconder tabs mais »
502 Bad Gateway

502 Bad Gateway


nginx
Composição: Vanessa Rangel
Esse não é o compositor? Avise-nos.
Contribuição: Willianm Correções: deividdelima , Andrei Moreira e mais 13 »
502 Bad Gateway

502 Bad Gateway


nginx
Exibir acordes »
502 Bad Gateway

502 Bad Gateway


nginx
publicidade
fechar