Uns Drinks

Velhas Virgens

 Velhas Virgens
Riff Principal:

G|-------------------|
D|-------------------|
A|-------------------|
E|3/1-3-3-3-3-3-3-3-3|

Qdo chegah na parte:
"E se você acordar eu digo":
G|-----------------------|
D|-----------------------|
A|5-5-5-5-3-3-3-3--------|
E|----------------3-3-3-3|

"Mais ve se nao reclama muito...":
G|--------------------------|
D|--------------------------|
A|222222-3333333-5555555555-|
E|--------------------------|

Refrao:(1x)
G|--------------------------|
D|--------------------------|
A|------5-5-5-3-3-3-2-2-2---|
E|3-3-3---------------------|

Na segunda vez NÃO TOCA O B(si), vai direto pro Riff Principal!
Eh uma musica mto facil, eu coloquei soh a base mesmo, da pra brincah bastante com
o ritmo! Divirtam-se! Velhas eh duca!

_______________________________________________________
Contribuição: Hamilton A. Rodrigues(matrixez@bol.com.br)

Comentários 0

Consegui tocarAinda não conseguiram tocar essa música. Seja o primeiro!
    Não consegui tocar
    publicidade
    fechar