Tom: D
		

E|-----0------0-------0-----0----------0------0-------0------0----------
B|-----2h3----2h3-----2h3---2h3--------2h3----2h3-----2h3----2h3--------
G|-----2------2-------2-----2----------2------2-------2------2----------
D|--0------0------------------------------------------------------------
A|---------------------------------2-------2----------------------------
E|-----------------3-----3-------------------------3------3-------------



(Essas notas nas ultimas cordas deixa suar)

Drop D
(tune thin E string to D)

   D   A   G   Bm  Em D/F#
e|-0- -0- -0- -0- -0- -0-
b|-3- -2- -3- -3- -0- -3-
g|-2- -2- -0- -4- -0- -2-
d|-0- -2- -0- -4- -2- -0-
a|-0- -0- -2- -2- -2- -0-
E|-x- -x- -3- -x- -0- -2-


Intro:
D, G, Bm, G (2x)

Versos:

G               D            A
   Take these roses off of me
 G          D               A
   Let me live and let me be, for a little while
 G            D           A                              G
     Let my eyes see everything and nothing in their time
D            A
  I do not mind

Pré-chorus:

         Bm          G        A
I don't know if you see me here
           Bm             G       A   
But I can tell you your face is clear, I will see you

Chorus: 

D        G    Bm    G
Forever,    Forever     (I will see you)
D        G     Bm   G
Forever,    Forever

Bridge:

    Em                     G
I wanted you to be everything to me
Em                               G
Now I've got to learn to carry on
   Em                               D/F#
I know I cannot hide with this emptiness inside
        G                               A
But nothing is the same since you've gone

End:

G               D            A
   Take these roses off of me
 G          D               A
   Let me live and let me be, for a little while

Obs: Fica bom fazendo um baixo e uma guitarra ao mesmo tempo ;P
     e o começo tá certo mesmo ... mas o resto te amo mt clarisse meu amor :) tá meio errado ..
     mas bestera :) dá pra enrolar ;P ... mas essa musica é muito massa o toque

Comentários 0

Composição: Bill Shore / Tristania
Esse não é o compositor? Avise-nos.
Contribuição: SuRtO Correções: SuRtO »
Consegui tocarAinda não conseguiram tocar essa música. Seja o primeiro!
    Não consegui tocar
    Exibir acordes »
    publicidade
    fechar