Ao Vivo e Em Cores

Victor e Leo

 Victor e Leo
Tom: G
		
Intro 2x: Em  C
(1ª parte)

E|------------------------|
B|------------------------|
G|------------------------|
D|------------------------|
A|--9-9-9-9--9-7---7-9----|
E|---------------9--------|

(2ª parte)

E|------------------------|
B|------------------------|
G|--7-7-7-7--7-6---6-7----|
D|---------------7--------|
A|------------------------|
E|------------------------|

(1ª parte)

E|------------------------|
B|------------------------|
G|------------------------|
D|------------------------|
A|--9-9-9-9--9-7---7-9----|
E|---------------9--------|

(3ª parte)

E|------------------------|
B|-------------------7----|
G|--7-7-7-7--7-9-7-9------|
D|------------------------|
A|------------------------|
E|------------------------|


Primeira Parte:
       Em
Sem palavras
           G
Assisto você
D                                 Em
  Nessa aventura de romance e ficção

Só não basta
              G
Simplesmente ver
D                                 Em
  Sentir seu toque na tela da ilusão

Pré-Refrão:
C                    G
  Estou ligado em você
C                   D4  D  D4  D
  Sintonizo pra te ver

Refrão 2x:
G       D
  Ao vivo e em cores
Em         C
  No fim, ninguém diz adeus
G         D
  Não filmei seus sonhos
C         D
  Mas gravei você nos meus

(repete tudo)
Solo:

E|-9-9-9--7-7-7---------------------7-7-7-7----------|
B|---------------10-10-10-10-10-10-------------------|
G|---------------------------------------------------|
D|---------------------------------------------------|
A|---------------------------------------------------|
E|---------------------------------------------------|



E|-9-9-9--7-7-7--------------------------------------|
B|---------------10----------------------------------|
G|---------------------------------------------------|
D|---------------------------------------------------|
A|---------------------------------------------------|
E|---------------------------------------------------|

Comentários 6

  • Marcelo Marcelo: Postado em 01/09/2013 15:11

    isso, coloquem Capo na 2º casa que fica perfeito....

  • ivanfsj ivanfsj: Postado em 30/10/2012 21:15

    aumentem mais 2 meios tons e tera a musica em tom original valeu abracos

  • johnnycbjr johnnycbjr: Postado em 27/08/2012 22:06

    mole demais !

  • vini.snsa vini.snsa: Postado em 11/12/2011 23:11

    ta faltando o capotraste na 2² casa!!

  • 12myh 12myh: Postado em 15/06/2011 20:32

    adoro muiiiito Victor e Léo

  • helmbrecht helmbrecht: Postado em 31/01/2011 15:29

    essa música é bem 10.. gostei

Composição: Victor Chaves
Esse não é o compositor? Avise-nos.
Contribuição: victor Correções: Rodney , André e mais 4 »
Exibir acordes »
publicidade
fechar