Chuva de Bruxaria

Victor e Leo

 Victor e Leo
Tom: F(acordes na forma do tom C)
Capotraste na 5ª casa		
Intro:

                   C  G/B  Am7  Am7/G  F  F  G
E|--------------------------------------------|
B|--------------------------------------------|
G|--------------------------------------------|
D|--------------7-----------------------------|
A|-------7-8-10---8---------------------------|
E|--8-10--------------------------------------|


                   C  G/B  Am7  Am7/G  F  F  G
E|--------------------------------------------|
B|--------------------------------------------|
G|--------------------------------------------|
D|--------------7-----------------------------|
A|-------7-8-10---8---------------------------|
E|--8-10--------------------------------------|


C        G       Am       F
Azuis, vermelhas, brancas flores
C           F     Dm          G
Pintando o cerro dos meus olhares
C       G      Am      F
Fossem linda garôa em cores
C           F     Dm         G
Molhando a tarde de ares solares
C        G
Chamam você, bem
 E       Am
Não fique aí
     E         F          G       C  C (abafado)
Vem molhar meu beijo, te beijo também

Refrão:
F                         C
Maga magia de lua luzia a noite virando dia
F                         C
Água na boca secando na louca chuva de bruxaria
G         C
Hoje você vem, dizia
G         C
Hoje você vem, dizia

                   C  G/B  Am7  Am7/G  F  F  G  C  G/B  Am7  Am7/G  F  F  G
E|------------------------------------------------------------------------|
B|------------------------------------------------------------------------|
G|------------------------------------------------------------------------|
D|--------------7---------------------------------------------------------|
A|-------7-8-10---8-------------------------------------------------------|
E|--8-10------------------------------------------------------------------|


C       G   Am     F
De cada ponta de folhagem
C        F    Dm          G
Cai uma gota dos nossos banhos
C       G   Am     F
Fada, samambaia, miragem
C        F        Dm         G
Doces varandas, sonhos estranhos
C       G      E      Am
O que a beleza puser na mesa
 E         F       G      C   C (abafado)
Beba sem medo, vem da natureza

Refrão:
F                         C
Maga magia de lua luzia a noite virando dia
F                         C
Água na boca secando na louca chuva de bruxaria
G         C
Hoje você vem, dizia
G         C
Hoje você vem, dizia
F                         C
Maga magia de lua luzia a noite virando dia
F                         C
Água na boca secando na louca chuva de bruxaria
G         C
Hoje você vem, dizia

Hoje você vem, dizia

                   C7
E|----------------9--|
B|----------------7--|
G|----------------6--|
D|-------------7--8--|
A|------7-8-10----9--|
E|--8-10-------------|
Texto Colunas
Alterar tom ½ tom ½ tom
afinação acordes na letra esconder tabs mais »
27.364 exibições

Comentários (2)

  • Lucas Lucas : Postado em 15/07/2013 22:28

    Na verdade o capo e na 5° Casa galeriinha... E só ver o vídeo e prestar atenção onde ele coloca o capo! Muito boooa a cifra \õ/

  • denner denner: Postado em 30/07/2011 09:29

    ai pessoal criei essa cifra só pros Fãns de Victor e léo Uhuuuuu

Composição: Victor Chaves
Esse não é o compositor? Avise-nos.
Contribuição: dennercarvalho Correções: issalo e mais 2 »
  1. Tudo Que Você Quiser - Luan Santana Manteve-se 4.902 exibições
  2. Lepo Lepo - Psirico Manteve-se 3.570 exibições
  3. Mozão - Lucas Lucco Manteve-se 3.423 exibições
  4. Logo Eu - Jorge e Mateus Manteve-se 3.029 exibições
  5. Gaveta - Fernando e Sorocaba Manteve-se 2.722 exibições
  6. Só Os Loucos Sabem - Charlie Brown Jr. Manteve-se 2.470 exibições
  7. Pra Você - Onze:20 Manteve-se 2.088 exibições
  8. Tempo Perdido - Legião Urbana Manteve-se 1.989 exibições
  9. Fui Fiel - Gusttavo Lima Manteve-se 1.760 exibições
  10. Na Linha do Tempo - Victor e Leo Manteve-se 1.759 exibições
  1. Jorge e Mateus- Manteve-se 18.170 exibições
  2. Legião Urbana- Manteve-se 16.306 exibições
  3. Luan Santana- Manteve-se 14.644 exibições
  4. Charlie Brown Jr.- Manteve-se 14.217 exibições
  5. Fernandinho- Manteve-se 12.391 exibições
  6. Thalles Roberto- Manteve-se 9.162 exibições
  7. Aline Barros- Manteve-se 9.064 exibições
  8. Católicas- Manteve-se 8.769 exibições
  9. Victor e Leo- Manteve-se 8.687 exibições
  10. Bruno e Marrone- Manteve-se 8.333 exibições
Exibir acordes »

Cifras e tabs

Fórum Cifra Club

Aprenda

Cifra Club News

Mais Serviços Cifra Club ID

Studio Sol

©1996 - 2014 Cifra Club · o primeiro, maior e mais acessado do Brasil · 329 mil músicas · 5.9 milhões pessoas cadastradas

publicidade
fechar