Nascemos Pra Cantar

Victor e Leo

 Victor e Leo
Tom: E(acordes na forma do tom C)
Capotraste na 4ª casa		
Intro: G  F  C  G  F  C

             G        F     C
E|-------|--------|------|--------------|
B|-------|------0-|-1----|-1p0h1--------|
G|------0|----0---|------|------------0-|
D|--2/3--|--------|-3--3-|-2p0h1--2/3---|
A|-------|--------|------|--------------|
E|-------|--3-----|------|--------------|


            G       F
E|------|--------|------1/3--3--1-----------|
B|------|------0-|-1----3/5--5--3p1--1----1-|
G|-----0|----0---|-------------------0h2--0-|
D|--2/3-|--------|-3-3----------------------|
A|------|--------|--------------------------|
E|------|--3-----|--------------------------|


             G        F     C
E|-------|--------|------|--------------|
B|-------|------0-|-1----|-1p0h1--------|
G|------0|----0---|------|------------0-|
D|--2/3--|--------|-3--3-|-2p0h1--2/3---|
A|-------|--------|------|--------------|
E|-------|--3-----|------|--------------|


            G       F
E|------|--------|------1/3--3--1---------|
B|------|------0-|-1----3/5--5--3p1--1----|
G|-----0|----0---|-------------------0h2--|
D|--2/3-|--------|-3-3--------------------|
A|------|--------|------------------------|
E|------|--3-----|------------------------|


             G      F
O grande mestre do céu,
      C
nosso criador
          G         F       C
Quando nascemos um dom nos dá
        G         F
E cada um segue a vida
   C
o seu destino
         G         F      C
E nós nascemos só pra cantar
  G   F    C
Eie, iiii, eee
 G   F    C
Ieieieieieie
  G   F    C
Eie, iiii, eee
 G   F    C
Ieieieieieie
              G        F
Quem canta os males espanta
        C
A gente é feliz
            G        F       C
Tal qual um pássaro livre no ar
          G
Pensando bem,
     F         C
Nós temos algo em comum
          G        F       C
Porque nascemos só pra cantar
  G   F    C
Eie, iiii, eee
 G   F    C
Ieieieieieie
  G   F    C
Eie, iiii, eee
 G   F    C
Ieieieieieie
C
  Disse o poeta
           F                C
O artista vai onde o povo está

Por isso cantamos
            F                   C
A qualquer hora, em qualquer lugar
C
  Disse o poeta
           F                C
O artista vai onde o povo está

Por isso cantamos
            F                   C
A qualquer hora, em qualquer lugar


Solo: C C# D G/D D G A D
E|---------------------------------------|
B|--------------------------------8-8-10-|
G|---------------------5---5-7-7/9-------|
D|-3/5-555555-9/7--5h7---7---------------|
A|---------------------------------------|
E|---------------------------------------|



E|---8---10---12---10---8h10--8----8-----|
B|-8---8----8----8----8---------10-------|
G|---------------------------------------|
D|---------------------------------------|
A|---------------------------------------|
E|---------------------------------------|


              A        G
Quem canta os males espanta
        D
A gente é feliz
             A       G       D
Tal qual um pássaro livre no ar
          A
Pensando bem,
     G         D
Nós temos algo em comum
          A          G     D
Porque nascemos só pra cantar...
  A   G   D
Eie, iiii, eee
 A   G    D
Ieieieieieie
  A   G    D
Eie, iiii, eee
 A   G    D  ( C C# D )
Ieieieieieie
27.063 exibições

Comentários 2

  • Gui2008 Gui2008: Postado em 17/12/2010 17:53

    nao a capotraste e na quarta mas toca-se G, F ,C

  • adilsontsn adilsontsn: Postado em 15/12/2010 11:28

    o capotraste e na quarta casa toca-se no C,G,F

Composição: Sabe quem é o compositor? Envie pra gente. Contribuição: Mrs40598 Correções: Daniel e mais 2 »
Exibir acordes »
publicidade
fechar